  0
SECTION
  2
HEADER
  9
$ACADVER
  1
AC1021
  9
$ACADMAINTVER
 70
    25
  9
$DWGCODEPAGE
  3
ANSI_936
  9
$INSBASE
 10
0.0
 20
0.0
 30
0.0
  9
$EXTMIN
 10
19.41014
 20
-10.3826
 30
0.0
  9
$EXTMAX
 10
66.70315
 20
23.83902
 30
0.0
  9
$LIMMIN
 10
0.0
 20
0.0
  9
$LIMMAX
 10
12.0
 20
9.0
  9
$ORTHOMODE
 70
     0
  9
$REGENMODE
 70
     1
  9
$FILLMODE
 70
     1
  9
$QTEXTMODE
 70
     0
  9
$MIRRTEXT
 70
     1
  9
$LTSCALE
 40
1.0
  9
$ATTMODE
 70
     1
  9
$TEXTSIZE
 40
0.2
  9
$TRACEWID
 40
0.05
  9
$TEXTSTYLE
  7
Standard
  9
$CLAYER
  8
0
  9
$CELTYPE
  6
ByLayer
  9
$CECOLOR
 62
   256
  9
$CELTSCALE
 40
1.0
  9
$DISPSILH
 70
     0
  9
$DIMSCALE
 40
1.0
  9
$DIMASZ
 40
0.18
  9
$DIMEXO
 40
0.0625
  9
$DIMDLI
 40
0.38
  9
$DIMRND
 40
0.0
  9
$DIMDLE
 40
0.0
  9
$DIMEXE
 40
0.18
  9
$DIMTP
 40
0.0
  9
$DIMTM
 40
0.0
  9
$DIMTXT
 40
0.18
  9
$DIMCEN
 40
0.09
  9
$DIMTSZ
 40
0.0
  9
$DIMTOL
 70
     0
  9
$DIMLIM
 70
     0
  9
$DIMTIH
 70
     1
  9
$DIMTOH
 70
     1
  9
$DIMSE1
 70
     0
  9
$DIMSE2
 70
     0
  9
$DIMTAD
 70
     0
  9
$DIMZIN
 70
     0
  9
$DIMBLK
  1

  9
$DIMASO
 70
     1
  9
$DIMSHO
 70
     1
  9
$DIMPOST
  1

  9
$DIMAPOST
  1

  9
$DIMALT
 70
     0
  9
$DIMALTD
 70
     2
  9
$DIMALTF
 40
25.4
  9
$DIMLFAC
 40
1.0
  9
$DIMTOFL
 70
     0
  9
$DIMTVP
 40
0.0
  9
$DIMTIX
 70
     0
  9
$DIMSOXD
 70
     0
  9
$DIMSAH
 70
     0
  9
$DIMBLK1
  1

  9
$DIMBLK2
  1

  9
$DIMSTYLE
  2
Standard
  9
$DIMCLRD
 70
     0
  9
$DIMCLRE
 70
     0
  9
$DIMCLRT
 70
     0
  9
$DIMTFAC
 40
1.0
  9
$DIMGAP
 40
0.09
  9
$DIMJUST
 70
     0
  9
$DIMSD1
 70
     0
  9
$DIMSD2
 70
     0
  9
$DIMTOLJ
 70
     1
  9
$DIMTZIN
 70
     0
  9
$DIMALTZ
 70
     0
  9
$DIMALTTZ
 70
     0
  9
$DIMUPT
 70
     0
  9
$DIMDEC
 70
     4
  9
$DIMTDEC
 70
     4
  9
$DIMALTU
 70
     2
  9
$DIMALTTD
 70
     2
  9
$DIMTXSTY
  7
Standard
  9
$DIMAUNIT
 70
     0
  9
$DIMADEC
 70
     0
  9
$DIMALTRND
 40
0.0
  9
$DIMAZIN
 70
     0
  9
$DIMDSEP
 70
    46
  9
$DIMATFIT
 70
     3
  9
$DIMFRAC
 70
     0
  9
$DIMLDRBLK
  1

  9
$DIMLUNIT
 70
     2
  9
$DIMLWD
 70
    -2
  9
$DIMLWE
 70
    -2
  9
$DIMTMOVE
 70
     0
  9
$DIMFXL
 40
1.0
  9
$DIMFXLON
 70
     0
  9
$DIMJOGANG
 40
0.7853981633974483
  9
$DIMTFILL
 70
     0
  9
$DIMTFILLCLR
 70
     0
  9
$DIMARCSYM
 70
     0
  9
$DIMLTYPE
  6

  9
$DIMLTEX1
  6

  9
$DIMLTEX2
  6

  9
$LUNITS
 70
     2
  9
$LUPREC
 70
     4
  9
$SKETCHINC
 40
0.1
  9
$FILLETRAD
 40
0.5
  9
$AUNITS
 70
     0
  9
$AUPREC
 70
     0
  9
$MENU
  1
.
  9
$ELEVATION
 40
0.0
  9
$PELEVATION
 40
0.0
  9
$THICKNESS
 40
0.0
  9
$LIMCHECK
 70
     0
  9
$CHAMFERA
 40
0.5
  9
$CHAMFERB
 40
0.5
  9
$CHAMFERC
 40
1.0
  9
$CHAMFERD
 40
0.0
  9
$SKPOLY
 70
     0
  9
$TDCREATE
 40
2458689.397031227
  9
$TDUCREATE
 40
2458689.063697894
  9
$TDUPDATE
 40
2458689.397031238
  9
$TDUUPDATE
 40
2458689.063697905
  9
$TDINDWG
 40
0.0000000116
  9
$TDUSRTIMER
 40
0.0000000116
  9
$USRTIMER
 70
     1
  9
$ANGBASE
 50
0.0
  9
$ANGDIR
 70
     0
  9
$PDMODE
 70
     0
  9
$PDSIZE
 40
0.0
  9
$PLINEWID
 40
0.0
  9
$SPLFRAME
 70
     0
  9
$SPLINETYPE
 70
     6
  9
$SPLINESEGS
 70
     8
  9
$HANDSEED
  5
88
  9
$SURFTAB1
 70
     6
  9
$SURFTAB2
 70
     6
  9
$SURFTYPE
 70
     6
  9
$SURFU
 70
     6
  9
$SURFV
 70
     6
  9
$UCSBASE
  2

  9
$UCSNAME
  2

  9
$UCSORG
 10
0.0
 20
0.0
 30
0.0
  9
$UCSXDIR
 10
1.0
 20
0.0
 30
0.0
  9
$UCSYDIR
 10
0.0
 20
1.0
 30
0.0
  9
$UCSORTHOREF
  2

  9
$UCSORTHOVIEW
 70
     0
  9
$UCSORGTOP
 10
0.0
 20
0.0
 30
0.0
  9
$UCSORGBOTTOM
 10
0.0
 20
0.0
 30
0.0
  9
$UCSORGLEFT
 10
0.0
 20
0.0
 30
0.0
  9
$UCSORGRIGHT
 10
0.0
 20
0.0
 30
0.0
  9
$UCSORGFRONT
 10
0.0
 20
0.0
 30
0.0
  9
$UCSORGBACK
 10
0.0
 20
0.0
 30
0.0
  9
$PUCSBASE
  2

  9
$PUCSNAME
  2

  9
$PUCSORG
 10
0.0
 20
0.0
 30
0.0
  9
$PUCSXDIR
 10
1.0
 20
0.0
 30
0.0
  9
$PUCSYDIR
 10
0.0
 20
1.0
 30
0.0
  9
$PUCSORTHOREF
  2

  9
$PUCSORTHOVIEW
 70
     0
  9
$PUCSORGTOP
 10
0.0
 20
0.0
 30
0.0
  9
$PUCSORGBOTTOM
 10
0.0
 20
0.0
 30
0.0
  9
$PUCSORGLEFT
 10
0.0
 20
0.0
 30
0.0
  9
$PUCSORGRIGHT
 10
0.0
 20
0.0
 30
0.0
  9
$PUCSORGFRONT
 10
0.0
 20
0.0
 30
0.0
  9
$PUCSORGBACK
 10
0.0
 20
0.0
 30
0.0
  9
$USERI1
 70
     0
  9
$USERI2
 70
     0
  9
$USERI3
 70
     0
  9
$USERI4
 70
     0
  9
$USERI5
 70
     0
  9
$USERR1
 40
0.0
  9
$USERR2
 40
0.0
  9
$USERR3
 40
0.0
  9
$USERR4
 40
0.0
  9
$USERR5
 40
0.0
  9
$WORLDVIEW
 70
     1
  9
$SHADEDGE
 70
     3
  9
$SHADEDIF
 70
    70
  9
$TILEMODE
 70
     1
  9
$MAXACTVP
 70
    64
  9
$PINSBASE
 10
0.0
 20
0.0
 30
0.0
  9
$PLIMCHECK
 70
     0
  9
$PEXTMIN
 10
1.000000000000000E+20
 20
1.000000000000000E+20
 30
1.000000000000000E+20
  9
$PEXTMAX
 10
-1.000000000000000E+20
 20
-1.000000000000000E+20
 30
-1.000000000000000E+20
  9
$PLIMMIN
 10
0.0
 20
0.0
  9
$PLIMMAX
 10
12.0
 20
9.0
  9
$UNITMODE
 70
     0
  9
$VISRETAIN
 70
     1
  9
$PLINEGEN
 70
     0
  9
$PSLTSCALE
 70
     1
  9
$TREEDEPTH
 70
  3020
  9
$CMLSTYLE
  2
Standard
  9
$CMLJUST
 70
     0
  9
$CMLSCALE
 40
1.0
  9
$PROXYGRAPHICS
 70
     1
  9
$MEASUREMENT
 70
     0
  9
$CELWEIGHT
370
    -1
  9
$ENDCAPS
280
     0
  9
$JOINSTYLE
280
     0
  9
$LWDISPLAY
290
     0
  9
$INSUNITS
 70
     5
  9
$HYPERLINKBASE
  1

  9
$STYLESHEET
  1

  9
$XEDIT
290
     1
  9
$CEPSNTYPE
380
     0
  9
$PSTYLEMODE
290
     1
  9
$FINGERPRINTGUID
  2
{F9C98ED8-BAF2-47A3-AED7-034419572D7A}
  9
$VERSIONGUID
  2
{FAEB1C32-E019-11D5-929B-00C0DF256EC4}
  9
$EXTNAMES
290
     1
  9
$PSVPSCALE
 40
0.0
  9
$OLESTARTUP
290
     0
  9
$SORTENTS
280
   127
  9
$INDEXCTL
280
     0
  9
$HIDETEXT
280
     1
  9
$XCLIPFRAME
290
     0
  9
$HALOGAP
280
     0
  9
$OBSCOLOR
 70
   257
  9
$OBSLTYPE
280
     0
  9
$INTERSECTIONDISPLAY
280
     0
  9
$INTERSECTIONCOLOR
 70
   257
  9
$DIMASSOC
280
     2
  9
$PROJECTNAME
  1

  9
$CAMERADISPLAY
290
     0
  9
$LENSLENGTH
 40
50.0
  9
$CAMERAHEIGHT
 40
0.0
  9
$STEPSPERSEC
 40
2.0
  9
$STEPSIZE
 40
6.0
  9
$3DDWFPREC
 40
2.0
  9
$PSOLWIDTH
 40
0.25
  9
$PSOLHEIGHT
 40
4.0
  9
$LOFTANG1
 40
1.570796326794897
  9
$LOFTANG2
 40
1.570796326794897
  9
$LOFTMAG1
 40
0.0
  9
$LOFTMAG2
 40
0.0
  9
$LOFTPARAM
 70
     7
  9
$LOFTNORMALS
280
     1
  9
$LATITUDE
 40
37.795
  9
$LONGITUDE
 40
-122.394
  9
$NORTHDIRECTION
 40
0.0
  9
$TIMEZONE
 70
 -8000
  9
$LIGHTGLYPHDISPLAY
280
     1
  9
$TILEMODELIGHTSYNCH
280
     1
  9
$SOLIDHIST
280
     1
  9
$SHOWHIST
280
     1
  9
$DWFFRAME
280
     2
  9
$DGNFRAME
280
     2
  9
$REALWORLDSCALE
290
     1
  9
$INTERFERECOLOR
 62
   256
  9
$CSHADOW
280
     0
  9
$SHADOWPLANELOCATION
 40
0.0
  0
ENDSEC
  0
SECTION
  2
CLASSES
  0
CLASS
  1
ACDBDICTIONARYWDFLT
  2
AcDbDictionaryWithDefault
  3
ObjectDBX Classes
 90
        0
 91
        3
280
     0
281
     0
  0
CLASS
  1
VISUALSTYLE
  2
AcDbVisualStyle
  3
ObjectDBX Classes
 90
     4095
 91
        3
280
     0
281
     0
  0
CLASS
  1
SCALE
  2
AcDbScale
  3
ObjectDBX Classes
 90
     1153
 91
        3
280
     0
281
     0
  0
ENDSEC
  0
SECTION
  2
TABLES
  0
TABLE
  2
VPORT
  5
8
330
0
100
AcDbSymbolTable
 70
     1
  0
VPORT
  5
29
330
8
100
AcDbSymbolTableRecord
100
AcDbViewportTableRecord
  2
*Active
 70
     0
 10
0.0
 20
0.0
 11
1.0
 21
1.0
 12
10.42990654205607
 22
4.5
 13
0.0
 23
0.0
 14
0.5
 24
0.5
 15
0.5
 25
0.5
 16
0.0
 26
0.0
 36
1.0
 17
0.0
 27
0.0
 37
0.0
 40
9.0
 41
1.972972972850329
 42
50.0
 43
0.0
 44
0.0
 50
0.0
 51
0.0
 71
     0
 72
   100
 73
     1
 74
     3
 75
     0
 76
     0
 77
     0
 78
     0
281
     0
 65
     1
110
0.0
120
0.0
130
0.0
111
1.0
121
0.0
131
0.0
112
0.0
122
1.0
132
0.0
 79
     0
146
0.0
 60
     3
 61
     5
292
     1
282
     1
141
0.0
142
0.0
 63
   256
  0
ENDTAB
  0
TABLE
  2
LTYPE
  5
5
330
0
100
AcDbSymbolTable
 70
     1
  0
LTYPE
  5
14
330
5
100
AcDbSymbolTableRecord
100
AcDbLinetypeTableRecord
  2
ByBlock
 70
     0
  3

 72
    65
 73
     0
 40
0.0
  0
LTYPE
  5
15
330
5
100
AcDbSymbolTableRecord
100
AcDbLinetypeTableRecord
  2
ByLayer
 70
     0
  3

 72
    65
 73
     0
 40
0.0
  0
LTYPE
  5
16
330
5
100
AcDbSymbolTableRecord
100
AcDbLinetypeTableRecord
  2
Continuous
 70
     0
  3
Solid line
 72
    65
 73
     0
 40
0.0
  0
ENDTAB
  0
TABLE
  2
LAYER
  5
2
330
0
100
AcDbSymbolTable
 70
     2
  0
LAYER
  5
10
330
2
100
AcDbSymbolTableRecord
100
AcDbLayerTableRecord
  2
0
 70
     0
 62
     7
  6
Continuous
370
    -3
390
F
347
0
  0
LAYER
  5
5E
330
2
100
AcDbSymbolTableRecord
100
AcDbLayerTableRecord
  2
layer 1
 70
     0
 62
     7
  6
Continuous
370
    -3
390
F
347
0
  0
ENDTAB
  0
TABLE
  2
STYLE
  5
3
330
0
100
AcDbSymbolTable
 70
     1
  0
STYLE
  5
11
330
3
100
AcDbSymbolTableRecord
100
AcDbTextStyleTableRecord
  2
Standard
 70
     0
 40
0.0
 41
1.0
 50
0.0
 71
     0
 42
0.2
  3
txt
  4

  0
ENDTAB
  0
TABLE
  2
VIEW
  5
6
330
0
100
AcDbSymbolTable
 70
     0
  0
ENDTAB
  0
TABLE
  2
UCS
  5
7
330
0
100
AcDbSymbolTable
 70
     0
  0
ENDTAB
  0
TABLE
  2
APPID
  5
9
330
0
100
AcDbSymbolTable
 70
     2
  0
APPID
  5
12
330
9
100
AcDbSymbolTableRecord
100
AcDbRegAppTableRecord
  2
ACAD
 70
     0
  0
APPID
  5
5D
330
9
100
AcDbSymbolTableRecord
100
AcDbRegAppTableRecord
  2
ODA
 70
     0
  0
ENDTAB
  0
TABLE
  2
DIMSTYLE
  5
A
330
0
100
AcDbSymbolTable
 70
     1
100
AcDbDimStyleTable
  0
DIMSTYLE
105
27
330
A
100
AcDbSymbolTableRecord
100
AcDbDimStyleTableRecord
  2
Standard
 70
     0
340
11
  0
ENDTAB
  0
TABLE
  2
BLOCK_RECORD
  5
1
330
0
100
AcDbSymbolTable
 70
     1
  0
BLOCK_RECORD
  5
1F
330
1
100
AcDbSymbolTableRecord
100
AcDbBlockTableRecord
  2
*Model_Space
340
22
 70
     0
280
     1
281
     0
  0
BLOCK_RECORD
  5
1B
330
1
100
AcDbSymbolTableRecord
100
AcDbBlockTableRecord
  2
*Paper_Space
340
1E
 70
     0
280
     1
281
     0
  0
BLOCK_RECORD
  5
23
330
1
100
AcDbSymbolTableRecord
100
AcDbBlockTableRecord
  2
*Paper_Space0
340
26
 70
     0
280
     1
281
     0
  0
ENDTAB
  0
ENDSEC
  0
SECTION
  2
BLOCKS
  0
BLOCK
  5
20
330
1F
100
AcDbEntity
  8
0
100
AcDbBlockBegin
  2
*Model_Space
 70
     0
 10
0.0
 20
0.0
 30
0.0
  3
*Model_Space
  1

  0
ENDBLK
  5
21
330
1F
100
AcDbEntity
  8
0
100
AcDbBlockEnd
  0
BLOCK
  5
1C
330
1B
100
AcDbEntity
 67
     1
  8
0
100
AcDbBlockBegin
  2
*Paper_Space
 70
     0
 10
0.0
 20
0.0
 30
0.0
  3
*Paper_Space
  1

  0
ENDBLK
  5
1D
330
1B
100
AcDbEntity
 67
     1
  8
0
100
AcDbBlockEnd
  0
BLOCK
  5
24
330
23
100
AcDbEntity
  8
0
100
AcDbBlockBegin
  2
*Paper_Space0
 70
     0
 10
0.0
 20
0.0
 30
0.0
  3
*Paper_Space0
  1

  0
ENDBLK
  5
25
330
23
100
AcDbEntity
  8
0
100
AcDbBlockEnd
  0
ENDSEC
  0
SECTION
  2
ENTITIES
  0
SPLINE
  5
5F
330
1F
100
AcDbEntity
  8
layer 1
 62
   250
370
    70
100
AcDbSpline
210
0.0
220
0.0
230
1.0
 70
    11
 71
     3
 72
    36
 73
    32
 74
     0
 42
0.0000000001
 43
0.0000000001
 40
0.0
 40
0.0
 40
0.0
 40
0.0
 40
0.125
 40
0.125
 40
0.125
 40
0.125
 40
0.25
 40
0.25
 40
0.25
 40
0.25
 40
0.375
 40
0.375
 40
0.375
 40
0.375
 40
0.5
 40
0.5
 40
0.5
 40
0.5
 40
0.625
 40
0.625
 40
0.625
 40
0.625
 40
0.75
 40
0.75
 40
0.75
 40
0.75
 40
0.875
 40
0.875
 40
0.875
 40
0.875
 40
1.0
 40
1.0
 40
1.0
 40
1.0
 10
23.39919
 20
23.80374
 30
0.0
 10
23.39919
 20
23.80374
 30
0.0
 10
60.87791
 20
23.80374
 30
0.0
 10
60.87791
 20
23.80374
 30
0.0
 10
60.87791
 20
23.80374
 30
0.0
 10
61.57126
 20
23.80374
 30
0.0
 10
62.13855
 20
23.2075
 30
0.0
 10
62.13855
 20
22.47874
 30
0.0
 10
62.13855
 20
22.47874
 30
0.0
 10
62.13855
 20
22.47874
 30
0.0
 10
62.13855
 20
-1.37126
 30
0.0
 10
62.13855
 20
-1.37126
 30
0.0
 10
62.13855
 20
-1.37126
 30
0.0
 10
62.13855
 20
-2.10002
 30
0.0
 10
61.57126
 20
-2.69626
 30
0.0
 10
60.87791
 20
-2.69626
 30
0.0
 10
60.87791
 20
-2.69626
 30
0.0
 10
60.87791
 20
-2.69626
 30
0.0
 10
23.39919
 20
-2.69626
 30
0.0
 10
23.39919
 20
-2.69626
 30
0.0
 10
23.39919
 20
-2.69626
 30
0.0
 10
22.70584
 20
-2.69626
 30
0.0
 10
22.13855
 20
-2.10002
 30
0.0
 10
22.13855
 20
-1.37126
 30
0.0
 10
22.13855
 20
-1.37126
 30
0.0
 10
22.13855
 20
-1.37126
 30
0.0
 10
22.13855
 20
22.47874
 30
0.0
 10
22.13855
 20
22.47874
 30
0.0
 10
22.13855
 20
22.47874
 30
0.0
 10
22.13855
 20
23.2075
 30
0.0
 10
22.70584
 20
23.80374
 30
0.0
 10
23.39919
 20
23.80374
 30
0.0
  0
SPLINE
  5
60
330
1F
100
AcDbEntity
  8
layer 1
 62
   250
100
AcDbSpline
210
0.0
220
0.0
230
1.0
 70
    11
 71
     3
 72
    92
 73
    88
 74
     0
 42
0.0000000001
 43
0.0000000001
 40
0.0
 40
0.0
 40
0.0
 40
0.0
 40
0.0454545454545455
 40
0.0454545454545455
 40
0.0454545454545455
 40
0.0454545454545455
 40
0.0909090909090909
 40
0.0909090909090909
 40
0.0909090909090909
 40
0.0909090909090909
 40
0.1363636363636364
 40
0.1363636363636364
 40
0.1363636363636364
 40
0.1363636363636364
 40
0.1818181818181818
 40
0.1818181818181818
 40
0.1818181818181818
 40
0.1818181818181818
 40
0.2272727272727273
 40
0.2272727272727273
 40
0.2272727272727273
 40
0.2272727272727273
 40
0.2727272727272728
 40
0.2727272727272728
 40
0.2727272727272728
 40
0.2727272727272728
 40
0.3181818181818182
 40
0.3181818181818182
 40
0.3181818181818182
 40
0.3181818181818182
 40
0.3636363636363637
 40
0.3636363636363637
 40
0.3636363636363637
 40
0.3636363636363637
 40
0.4090909090909092
 40
0.4090909090909092
 40
0.4090909090909092
 40
0.4090909090909092
 40
0.4545454545454546
 40
0.4545454545454546
 40
0.4545454545454546
 40
0.4545454545454546
 40
0.5000000000000001
 40
0.5000000000000001
 40
0.5000000000000001
 40
0.5000000000000001
 40
0.5454545454545455
 40
0.5454545454545455
 40
0.5454545454545455
 40
0.5454545454545455
 40
0.5909090909090909
 40
0.5909090909090909
 40
0.5909090909090909
 40
0.5909090909090909
 40
0.6363636363636364
 40
0.6363636363636364
 40
0.6363636363636364
 40
0.6363636363636364
 40
0.6818181818181818
 40
0.6818181818181818
 40
0.6818181818181818
 40
0.6818181818181818
 40
0.7272727272727272
 40
0.7272727272727272
 40
0.7272727272727272
 40
0.7272727272727272
 40
0.7727272727272726
 40
0.7727272727272726
 40
0.7727272727272726
 40
0.7727272727272726
 40
0.818181818181818
 40
0.818181818181818
 40
0.818181818181818
 40
0.818181818181818
 40
0.8636363636363634
 40
0.8636363636363634
 40
0.8636363636363634
 40
0.8636363636363634
 40
0.9090909090909088
 40
0.9090909090909088
 40
0.9090909090909088
 40
0.9090909090909088
 40
0.9545454545454543
 40
0.9545454545454543
 40
0.9545454545454543
 40
0.9545454545454543
 40
1.0
 40
1.0
 40
1.0
 40
1.0
 10
21.51043
 20
-9.42505
 30
0.0
 10
21.51043
 20
-9.42505
 30
0.0
 10
21.84926
 20
-9.5108
 30
0.0
 10
21.84926
 20
-9.5108
 30
0.0
 10
21.84926
 20
-9.5108
 30
0.0
 10
21.7784
 20
-9.7883
 30
0.0
 10
21.65037
 20
-10.0003
 30
0.0
 10
21.46636
 20
-10.14679
 30
0.0
 10
21.46636
 20
-10.14679
 30
0.0
 10
21.28176
 20
-10.29268
 30
0.0
 10
21.05667
 20
-10.36533
 30
0.0
 10
20.78989
 20
-10.36533
 30
0.0
 10
20.78989
 20
-10.36533
 30
0.0
 10
20.51418
 20
-10.36533
 30
0.0
 10
20.29027
 20
-10.30935
 30
0.0
 10
20.11758
 20
-10.1974
 30
0.0
 10
20.11758
 20
-10.1974
 30
0.0
 10
19.94489
 20
-10.08486
 30
0.0
 10
19.81329
 20
-9.92229
 30
0.0
 10
19.72337
 20
-9.7097
 30
0.0
 10
19.72337
 20
-9.7097
 30
0.0
 10
19.63345
 20
-9.49651
 30
0.0
 10
19.58819
 20
-9.26785
 30
0.0
 10
19.58819
 20
-9.0237
 30
0.0
 10
19.58819
 20
-9.0237
 30
0.0
 10
19.58819
 20
-8.75751
 30
0.0
 10
19.63881
 20
-8.52527
 30
0.0
 10
19.74064
 20
-8.32697
 30
0.0
 10
19.74064
 20
-8.32697
 30
0.0
 10
19.84246
 20
-8.12868
 30
0.0
 10
19.98717
 20
-7.97802
 30
0.0
 10
20.17534
 20
-7.875
 30
0.0
 10
20.17534
 20
-7.875
 30
0.0
 10
20.36292
 20
-7.77198
 30
0.0
 10
20.56956
 20
-7.72077
 30
0.0
 10
20.79525
 20
-7.72077
 30
0.0
 10
20.79525
 20
-7.72077
 30
0.0
 10
21.05131
 20
-7.72077
 30
0.0
 10
21.26628
 20
-7.78568
 30
0.0
 10
21.44076
 20
-7.91609
 30
0.0
 10
21.44076
 20
-7.91609
 30
0.0
 10
21.61523
 20
-8.0465
 30
0.0
 10
21.73671
 20
-8.22931
 30
0.0
 10
21.80519
 20
-8.46572
 30
0.0
 10
21.80519
 20
-8.46572
 30
0.0
 10
21.80519
 20
-8.46572
 30
0.0
 10
21.47232
 20
-8.54433
 30
0.0
 10
21.47232
 20
-8.54433
 30
0.0
 10
21.47232
 20
-8.54433
 30
0.0
 10
21.41277
 20
-8.35794
 30
0.0
 10
21.32702
 20
-8.22276
 30
0.0
 10
21.21387
 20
-8.13761
 30
0.0
 10
21.21387
 20
-8.13761
 30
0.0
 10
21.10133
 20
-8.05245
 30
0.0
 10
20.9596
 20
-8.01017
 30
0.0
 10
20.7881
 20
-8.01017
 30
0.0
 10
20.7881
 20
-8.01017
 30
0.0
 10
20.59159
 20
-8.01017
 30
0.0
 10
20.42783
 20
-8.05722
 30
0.0
 10
20.29563
 20
-8.1513
 30
0.0
 10
20.29563
 20
-8.1513
 30
0.0
 10
20.16343
 20
-8.24599
 30
0.0
 10
20.07054
 20
-8.37223
 30
0.0
 10
20.01754
 20
-8.53123
 30
0.0
 10
20.01754
 20
-8.53123
 30
0.0
 10
19.96394
 20
-8.68963
 30
0.0
 10
19.93715
 20
-8.85339
 30
0.0
 10
19.93715
 20
-9.02191
 30
0.0
 10
19.93715
 20
-9.02191
 30
0.0
 10
19.93715
 20
-9.23986
 30
0.0
 10
19.96871
 20
-9.42922
 30
0.0
 10
20.03183
 20
-9.59179
 30
0.0
 10
20.03183
 20
-9.59179
 30
0.0
 10
20.09555
 20
-9.75376
 30
0.0
 10
20.1938
 20
-9.87524
 30
0.0
 10
20.32779
 20
-9.95563
 30
0.0
 10
20.32779
 20
-9.95563
 30
0.0
 10
20.46177
 20
-10.03603
 30
0.0
 10
20.60648
 20
-10.07592
 30
0.0
 10
20.76249
 20
-10.07592
 30
0.0
 10
20.76249
 20
-10.07592
 30
0.0
 10
20.95186
 20
-10.07592
 30
0.0
 10
21.11205
 20
-10.02114
 30
0.0
 10
21.24365
 20
-9.91216
 30
0.0
 10
21.24365
 20
-9.91216
 30
0.0
 10
21.37525
 20
-9.80259
 30
0.0
 10
21.46398
 20
-9.64003
 30
0.0
 10
21.51043
 20
-9.42505
 30
0.0
  0
SPLINE
  5
61
330
1F
100
AcDbEntity
  8
layer 1
 62
   250
100
AcDbSpline
210
0.0
220
0.0
230
1.0
 70
    11
 71
     3
 72
    48
 73
    44
 74
     0
 42
0.0000000001
 43
0.0000000001
 40
0.0
 40
0.0
 40
0.0
 40
0.0
 40
0.0909090909090909
 40
0.0909090909090909
 40
0.0909090909090909
 40
0.0909090909090909
 40
0.1818181818181818
 40
0.1818181818181818
 40
0.1818181818181818
 40
0.1818181818181818
 40
0.2727272727272727
 40
0.2727272727272727
 40
0.2727272727272727
 40
0.2727272727272727
 40
0.3636363636363636
 40
0.3636363636363636
 40
0.3636363636363636
 40
0.3636363636363636
 40
0.4545454545454546
 40
0.4545454545454546
 40
0.4545454545454546
 40
0.4545454545454546
 40
0.5454545454545455
 40
0.5454545454545455
 40
0.5454545454545455
 40
0.5454545454545455
 40
0.6363636363636365
 40
0.6363636363636365
 40
0.6363636363636365
 40
0.6363636363636365
 40
0.7272727272727274
 40
0.7272727272727274
 40
0.7272727272727274
 40
0.7272727272727274
 40
0.8181818181818183
 40
0.8181818181818183
 40
0.8181818181818183
 40
0.8181818181818183
 40
0.9090909090909093
 40
0.9090909090909093
 40
0.9090909090909093
 40
0.9090909090909093
 40
1.0
 40
1.0
 40
1.0
 40
1.0
 10
48.71142
 20
-10.32186
 30
0.0
 10
48.71142
 20
-10.32186
 30
0.0
 10
48.71142
 20
-9.7097
 30
0.0
 10
48.71142
 20
-9.7097
 30
0.0
 10
48.71142
 20
-9.7097
 30
0.0
 10
48.71142
 20
-9.7097
 30
0.0
 10
47.60203
 20
-9.7097
 30
0.0
 10
47.60203
 20
-9.7097
 30
0.0
 10
47.60203
 20
-9.7097
 30
0.0
 10
47.60203
 20
-9.7097
 30
0.0
 10
47.60203
 20
-9.42148
 30
0.0
 10
47.60203
 20
-9.42148
 30
0.0
 10
47.60203
 20
-9.42148
 30
0.0
 10
47.60203
 20
-9.42148
 30
0.0
 10
48.76918
 20
-7.76424
 30
0.0
 10
48.76918
 20
-7.76424
 30
0.0
 10
48.76918
 20
-7.76424
 30
0.0
 10
48.76918
 20
-7.76424
 30
0.0
 10
49.02584
 20
-7.76424
 30
0.0
 10
49.02584
 20
-7.76424
 30
0.0
 10
49.02584
 20
-7.76424
 30
0.0
 10
49.02584
 20
-7.76424
 30
0.0
 10
49.02584
 20
-9.42148
 30
0.0
 10
49.02584
 20
-9.42148
 30
0.0
 10
49.02584
 20
-9.42148
 30
0.0
 10
49.02584
 20
-9.42148
 30
0.0
 10
49.37122
 20
-9.42148
 30
0.0
 10
49.37122
 20
-9.42148
 30
0.0
 10
49.37122
 20
-9.42148
 30
0.0
 10
49.37122
 20
-9.42148
 30
0.0
 10
49.37122
 20
-9.7097
 30
0.0
 10
49.37122
 20
-9.7097
 30
0.0
 10
49.37122
 20
-9.7097
 30
0.0
 10
49.37122
 20
-9.7097
 30
0.0
 10
49.02584
 20
-9.7097
 30
0.0
 10
49.02584
 20
-9.7097
 30
0.0
 10
49.02584
 20
-9.7097
 30
0.0
 10
49.02584
 20
-9.7097
 30
0.0
 10
49.02584
 20
-10.32186
 30
0.0
 10
49.02584
 20
-10.32186
 30
0.0
 10
49.02584
 20
-10.32186
 30
0.0
 10
49.02584
 20
-10.32186
 30
0.0
 10
48.71142
 20
-10.32186
 30
0.0
 10
48.71142
 20
-10.32186
 30
0.0
  0
SPLINE
  5
62
330
1F
100
AcDbEntity
  8
layer 1
 62
   250
100
AcDbSpline
210
0.0
220
0.0
230
1.0
 70
    11
 71
     3
 72
    16
 73
    12
 74
     0
 42
0.0000000001
 43
0.0000000001
 40
0.0
 40
0.0
 40
0.0
 40
0.0
 40
0.3333333333333333
 40
0.3333333333333333
 40
0.3333333333333333
 40
0.3333333333333333
 40
0.6666666666666666
 40
0.6666666666666666
 40
0.6666666666666666
 40
0.6666666666666666
 40
1.0
 40
1.0
 40
1.0
 40
1.0
 10
48.71142
 20
-9.42148
 30
0.0
 10
48.71142
 20
-9.42148
 30
0.0
 10
48.71142
 20
-8.26862
 30
0.0
 10
48.71142
 20
-8.26862
 30
0.0
 10
48.71142
 20
-8.26862
 30
0.0
 10
48.71142
 20
-8.26862
 30
0.0
 10
47.91109
 20
-9.42148
 30
0.0
 10
47.91109
 20
-9.42148
 30
0.0
 10
47.91109
 20
-9.42148
 30
0.0
 10
47.91109
 20
-9.42148
 30
0.0
 10
48.71142
 20
-9.42148
 30
0.0
 10
48.71142
 20
-9.42148
 30
0.0
  0
SPLINE
  5
63
330
1F
100
AcDbEntity
  8
layer 1
 62
   250
100
AcDbSpline
210
0.0
220
0.0
230
1.0
 70
    11
 71
     3
 72
    52
 73
    48
 74
     0
 42
0.0000000001
 43
0.0000000001
 40
0.0
 40
0.0
 40
0.0
 40
0.0
 40
0.0833333333333333
 40
0.0833333333333333
 40
0.0833333333333333
 40
0.0833333333333333
 40
0.1666666666666667
 40
0.1666666666666667
 40
0.1666666666666667
 40
0.1666666666666667
 40
0.25
 40
0.25
 40
0.25
 40
0.25
 40
0.3333333333333333
 40
0.3333333333333333
 40
0.3333333333333333
 40
0.3333333333333333
 40
0.4166666666666666
 40
0.4166666666666666
 40
0.4166666666666666
 40
0.4166666666666666
 40
0.4999999999999999
 40
0.4999999999999999
 40
0.4999999999999999
 40
0.4999999999999999
 40
0.5833333333333333
 40
0.5833333333333333
 40
0.5833333333333333
 40
0.5833333333333333
 40
0.6666666666666666
 40
0.6666666666666666
 40
0.6666666666666666
 40
0.6666666666666666
 40
0.75
 40
0.75
 40
0.75
 40
0.75
 40
0.8333333333333334
 40
0.8333333333333334
 40
0.8333333333333334
 40
0.8333333333333334
 40
0.9166666666666667
 40
0.9166666666666667
 40
0.9166666666666667
 40
0.9166666666666667
 40
1.0
 40
1.0
 40
1.0
 40
1.0
 10
49.89073
 20
-9.06062
 30
0.0
 10
49.89073
 20
-8.75811
 30
0.0
 10
49.92169
 20
-8.51455
 30
0.0
 10
49.98422
 20
-8.33055
 30
0.0
 10
49.98422
 20
-8.33055
 30
0.0
 10
50.04615
 20
-8.14595
 30
0.0
 10
50.13905
 20
-8.00362
 30
0.0
 10
50.26172
 20
-7.90358
 30
0.0
 10
50.26172
 20
-7.90358
 30
0.0
 10
50.38439
 20
-7.80354
 30
0.0
 10
50.53862
 20
-7.75352
 30
0.0
 10
50.72441
 20
-7.75352
 30
0.0
 10
50.72441
 20
-7.75352
 30
0.0
 10
50.86197
 20
-7.75352
 30
0.0
 10
50.98226
 20
-7.78151
 30
0.0
 10
51.08587
 20
-7.83689
 30
0.0
 10
51.08587
 20
-7.83689
 30
0.0
 10
51.18949
 20
-7.89167
 30
0.0
 10
51.27464
 20
-7.97147
 30
0.0
 10
51.34253
 20
-8.07568
 30
0.0
 10
51.34253
 20
-8.07568
 30
0.0
 10
51.40982
 20
-8.17989
 30
0.0
 10
51.46282
 20
-8.30673
 30
0.0
 10
51.50093
 20
-8.4562
 30
0.0
 10
51.50093
 20
-8.4562
 30
0.0
 10
51.53963
 20
-8.60566
 30
0.0
 10
51.55869
 20
-8.80694
 30
0.0
 10
51.55869
 20
-9.06062
 30
0.0
 10
51.55869
 20
-9.06062
 30
0.0
 10
51.55869
 20
-9.36074
 30
0.0
 10
51.52772
 20
-9.60251
 30
0.0
 10
51.46639
 20
-9.78711
 30
0.0
 10
51.46639
 20
-9.78711
 30
0.0
 10
51.40446
 20
-9.97171
 30
0.0
 10
51.31216
 20
-10.11403
 30
0.0
 10
51.18949
 20
-10.21467
 30
0.0
 10
51.18949
 20
-10.21467
 30
0.0
 10
51.06682
 20
-10.31531
 30
0.0
 10
50.91199
 20
-10.36533
 30
0.0
 10
50.72441
 20
-10.36533
 30
0.0
 10
50.72441
 20
-10.36533
 30
0.0
 10
50.47788
 20
-10.36533
 30
0.0
 10
50.28434
 20
-10.2772
 30
0.0
 10
50.14381
 20
-10.10034
 30
0.0
 10
50.14381
 20
-10.10034
 30
0.0
 10
49.97529
 20
-9.88775
 30
0.0
 10
49.89073
 20
-9.54058
 30
0.0
 10
49.89073
 20
-9.06062
 30
0.0
  0
SPLINE
  5
64
330
1F
100
AcDbEntity
  8
layer 1
 62
   250
100
AcDbSpline
210
0.0
220
0.0
230
1.0
 70
    11
 71
     3
 72
    36
 73
    32
 74
     0
 42
0.0000000001
 43
0.0000000001
 40
0.0
 40
0.0
 40
0.0
 40
0.0
 40
0.125
 40
0.125
 40
0.125
 40
0.125
 40
0.25
 40
0.25
 40
0.25
 40
0.25
 40
0.375
 40
0.375
 40
0.375
 40
0.375
 40
0.5
 40
0.5
 40
0.5
 40
0.5
 40
0.625
 40
0.625
 40
0.625
 40
0.625
 40
0.75
 40
0.75
 40
0.75
 40
0.75
 40
0.875
 40
0.875
 40
0.875
 40
0.875
 40
1.0
 40
1.0
 40
1.0
 40
1.0
 10
50.21348
 20
-9.06062
 30
0.0
 10
50.21348
 20
-9.48043
 30
0.0
 10
50.26291
 20
-9.75972
 30
0.0
 10
50.36116
 20
-9.89906
 30
0.0
 10
50.36116
 20
-9.89906
 30
0.0
 10
50.45942
 20
-10.03781
 30
0.0
 10
50.5803
 20
-10.10748
 30
0.0
 10
50.72441
 20
-10.10748
 30
0.0
 10
50.72441
 20
-10.10748
 30
0.0
 10
50.86911
 20
-10.10748
 30
0.0
 10
50.99
 20
-10.03722
 30
0.0
 10
51.08825
 20
-9.89787
 30
0.0
 10
51.08825
 20
-9.89787
 30
0.0
 10
51.18651
 20
-9.75853
 30
0.0
 10
51.23593
 20
-9.47924
 30
0.0
 10
51.23593
 20
-9.06062
 30
0.0
 10
51.23593
 20
-9.06062
 30
0.0
 10
51.23593
 20
-8.63961
 30
0.0
 10
51.18651
 20
-8.35973
 30
0.0
 10
51.08825
 20
-8.22157
 30
0.0
 10
51.08825
 20
-8.22157
 30
0.0
 10
50.99
 20
-8.08282
 30
0.0
 10
50.86792
 20
-8.01375
 30
0.0
 10
50.72143
 20
-8.01375
 30
0.0
 10
50.72143
 20
-8.01375
 30
0.0
 10
50.57673
 20
-8.01375
 30
0.0
 10
50.4618
 20
-8.07508
 30
0.0
 10
50.37545
 20
-8.19716
 30
0.0
 10
50.37545
 20
-8.19716
 30
0.0
 10
50.26767
 20
-8.35258
 30
0.0
 10
50.21348
 20
-8.6408
 30
0.0
 10
50.21348
 20
-9.06062
 30
0.0
  0
SPLINE
  5
65
330
1F
100
AcDbEntity
  8
layer 1
 62
   250
100
AcDbSpline
210
0.0
220
0.0
230
1.0
 70
    11
 71
     3
 72
    52
 73
    48
 74
     0
 42
0.0000000001
 43
0.0000000001
 40
0.0
 40
0.0
 40
0.0
 40
0.0
 40
0.0833333333333333
 40
0.0833333333333333
 40
0.0833333333333333
 40
0.0833333333333333
 40
0.1666666666666667
 40
0.1666666666666667
 40
0.1666666666666667
 40
0.1666666666666667
 40
0.25
 40
0.25
 40
0.25
 40
0.25
 40
0.3333333333333333
 40
0.3333333333333333
 40
0.3333333333333333
 40
0.3333333333333333
 40
0.4166666666666666
 40
0.4166666666666666
 40
0.4166666666666666
 40
0.4166666666666666
 40
0.4999999999999999
 40
0.4999999999999999
 40
0.4999999999999999
 40
0.4999999999999999
 40
0.5833333333333333
 40
0.5833333333333333
 40
0.5833333333333333
 40
0.5833333333333333
 40
0.6666666666666666
 40
0.6666666666666666
 40
0.6666666666666666
 40
0.6666666666666666
 40
0.75
 40
0.75
 40
0.75
 40
0.75
 40
0.8333333333333334
 40
0.8333333333333334
 40
0.8333333333333334
 40
0.8333333333333334
 40
0.9166666666666667
 40
0.9166666666666667
 40
0.9166666666666667
 40
0.9166666666666667
 40
1.0
 40
1.0
 40
1.0
 40
1.0
 10
52.07641
 20
-9.06062
 30
0.0
 10
52.07641
 20
-8.75811
 30
0.0
 10
52.10737
 20
-8.51455
 30
0.0
 10
52.1699
 20
-8.33055
 30
0.0
 10
52.1699
 20
-8.33055
 30
0.0
 10
52.23183
 20
-8.14595
 30
0.0
 10
52.32473
 20
-8.00362
 30
0.0
 10
52.4474
 20
-7.90358
 30
0.0
 10
52.4474
 20
-7.90358
 30
0.0
 10
52.57007
 20
-7.80354
 30
0.0
 10
52.7243
 20
-7.75352
 30
0.0
 10
52.91009
 20
-7.75352
 30
0.0
 10
52.91009
 20
-7.75352
 30
0.0
 10
53.04765
 20
-7.75352
 30
0.0
 10
53.16794
 20
-7.78151
 30
0.0
 10
53.27155
 20
-7.83689
 30
0.0
 10
53.27155
 20
-7.83689
 30
0.0
 10
53.37517
 20
-7.89167
 30
0.0
 10
53.46032
 20
-7.97147
 30
0.0
 10
53.52821
 20
-8.07568
 30
0.0
 10
53.52821
 20
-8.07568
 30
0.0
 10
53.5955
 20
-8.17989
 30
0.0
 10
53.6485
 20
-8.30673
 30
0.0
 10
53.68661
 20
-8.4562
 30
0.0
 10
53.68661
 20
-8.4562
 30
0.0
 10
53.72531
 20
-8.60566
 30
0.0
 10
53.74437
 20
-8.80694
 30
0.0
 10
53.74437
 20
-9.06062
 30
0.0
 10
53.74437
 20
-9.06062
 30
0.0
 10
53.74437
 20
-9.36074
 30
0.0
 10
53.7134
 20
-9.60251
 30
0.0
 10
53.65207
 20
-9.78711
 30
0.0
 10
53.65207
 20
-9.78711
 30
0.0
 10
53.59014
 20
-9.97171
 30
0.0
 10
53.49784
 20
-10.11403
 30
0.0
 10
53.37517
 20
-10.21467
 30
0.0
 10
53.37517
 20
-10.21467
 30
0.0
 10
53.2525
 20
-10.31531
 30
0.0
 10
53.09767
 20
-10.36533
 30
0.0
 10
52.91009
 20
-10.36533
 30
0.0
 10
52.91009
 20
-10.36533
 30
0.0
 10
52.66356
 20
-10.36533
 30
0.0
 10
52.47002
 20
-10.2772
 30
0.0
 10
52.32949
 20
-10.10034
 30
0.0
 10
52.32949
 20
-10.10034
 30
0.0
 10
52.16097
 20
-9.88775
 30
0.0
 10
52.07641
 20
-9.54058
 30
0.0
 10
52.07641
 20
-9.06062
 30
0.0
  0
SPLINE
  5
66
330
1F
100
AcDbEntity
  8
layer 1
 62
   250
100
AcDbSpline
210
0.0
220
0.0
230
1.0
 70
    11
 71
     3
 72
    36
 73
    32
 74
     0
 42
0.0000000001
 43
0.0000000001
 40
0.0
 40
0.0
 40
0.0
 40
0.0
 40
0.125
 40
0.125
 40
0.125
 40
0.125
 40
0.25
 40
0.25
 40
0.25
 40
0.25
 40
0.375
 40
0.375
 40
0.375
 40
0.375
 40
0.5
 40
0.5
 40
0.5
 40
0.5
 40
0.625
 40
0.625
 40
0.625
 40
0.625
 40
0.75
 40
0.75
 40
0.75
 40
0.75
 40
0.875
 40
0.875
 40
0.875
 40
0.875
 40
1.0
 40
1.0
 40
1.0
 40
1.0
 10
52.39916
 20
-9.06062
 30
0.0
 10
52.39916
 20
-9.48043
 30
0.0
 10
52.44859
 20
-9.75972
 30
0.0
 10
52.54684
 20
-9.89906
 30
0.0
 10
52.54684
 20
-9.89906
 30
0.0
 10
52.6451
 20
-10.03781
 30
0.0
 10
52.76598
 20
-10.10748
 30
0.0
 10
52.91009
 20
-10.10748
 30
0.0
 10
52.91009
 20
-10.10748
 30
0.0
 10
53.05479
 20
-10.10748
 30
0.0
 10
53.17568
 20
-10.03722
 30
0.0
 10
53.27393
 20
-9.89787
 30
0.0
 10
53.27393
 20
-9.89787
 30
0.0
 10
53.37219
 20
-9.75853
 30
0.0
 10
53.42161
 20
-9.47924
 30
0.0
 10
53.42161
 20
-9.06062
 30
0.0
 10
53.42161
 20
-9.06062
 30
0.0
 10
53.42161
 20
-8.63961
 30
0.0
 10
53.37219
 20
-8.35973
 30
0.0
 10
53.27393
 20
-8.22157
 30
0.0
 10
53.27393
 20
-8.22157
 30
0.0
 10
53.17568
 20
-8.08282
 30
0.0
 10
53.0536
 20
-8.01375
 30
0.0
 10
52.90711
 20
-8.01375
 30
0.0
 10
52.90711
 20
-8.01375
 30
0.0
 10
52.76241
 20
-8.01375
 30
0.0
 10
52.64748
 20
-8.07508
 30
0.0
 10
52.56113
 20
-8.19716
 30
0.0
 10
52.56113
 20
-8.19716
 30
0.0
 10
52.45335
 20
-8.35258
 30
0.0
 10
52.39916
 20
-8.6408
 30
0.0
 10
52.39916
 20
-9.06062
 30
0.0
  0
SPLINE
  5
67
330
1F
100
AcDbEntity
  8
layer 1
 62
   250
100
AcDbSpline
210
0.0
220
0.0
230
1.0
 70
    11
 71
     3
 72
    92
 73
    88
 74
     0
 42
0.0000000001
 43
0.0000000001
 40
0.0
 40
0.0
 40
0.0
 40
0.0
 40
0.0454545454545455
 40
0.0454545454545455
 40
0.0454545454545455
 40
0.0454545454545455
 40
0.0909090909090909
 40
0.0909090909090909
 40
0.0909090909090909
 40
0.0909090909090909
 40
0.1363636363636364
 40
0.1363636363636364
 40
0.1363636363636364
 40
0.1363636363636364
 40
0.1818181818181818
 40
0.1818181818181818
 40
0.1818181818181818
 40
0.1818181818181818
 40
0.2272727272727273
 40
0.2272727272727273
 40
0.2272727272727273
 40
0.2272727272727273
 40
0.2727272727272728
 40
0.2727272727272728
 40
0.2727272727272728
 40
0.2727272727272728
 40
0.3181818181818182
 40
0.3181818181818182
 40
0.3181818181818182
 40
0.3181818181818182
 40
0.3636363636363637
 40
0.3636363636363637
 40
0.3636363636363637
 40
0.3636363636363637
 40
0.4090909090909092
 40
0.4090909090909092
 40
0.4090909090909092
 40
0.4090909090909092
 40
0.4545454545454546
 40
0.4545454545454546
 40
0.4545454545454546
 40
0.4545454545454546
 40
0.5000000000000001
 40
0.5000000000000001
 40
0.5000000000000001
 40
0.5000000000000001
 40
0.5454545454545455
 40
0.5454545454545455
 40
0.5454545454545455
 40
0.5454545454545455
 40
0.5909090909090909
 40
0.5909090909090909
 40
0.5909090909090909
 40
0.5909090909090909
 40
0.6363636363636364
 40
0.6363636363636364
 40
0.6363636363636364
 40
0.6363636363636364
 40
0.6818181818181818
 40
0.6818181818181818
 40
0.6818181818181818
 40
0.6818181818181818
 40
0.7272727272727272
 40
0.7272727272727272
 40
0.7272727272727272
 40
0.7272727272727272
 40
0.7727272727272726
 40
0.7727272727272726
 40
0.7727272727272726
 40
0.7727272727272726
 40
0.818181818181818
 40
0.818181818181818
 40
0.818181818181818
 40
0.818181818181818
 40
0.8636363636363634
 40
0.8636363636363634
 40
0.8636363636363634
 40
0.8636363636363634
 40
0.9090909090909088
 40
0.9090909090909088
 40
0.9090909090909088
 40
0.9090909090909088
 40
0.9545454545454543
 40
0.9545454545454543
 40
0.9545454545454543
 40
0.9545454545454543
 40
1.0
 40
1.0
 40
1.0
 40
1.0
 10
58.05654
 20
-10.01995
 30
0.0
 10
58.05654
 20
-10.01995
 30
0.0
 10
58.05654
 20
-10.32186
 30
0.0
 10
58.05654
 20
-10.32186
 30
0.0
 10
58.05654
 20
-10.32186
 30
0.0
 10
58.05654
 20
-10.32186
 30
0.0
 10
56.36595
 20
-10.32186
 30
0.0
 10
56.36595
 20
-10.32186
 30
0.0
 10
56.36595
 20
-10.32186
 30
0.0
 10
56.36357
 20
-10.24623
 30
0.0
 10
56.37548
 20
-10.17358
 30
0.0
 10
56.40227
 20
-10.10391
 30
0.0
 10
56.40227
 20
-10.10391
 30
0.0
 10
56.44515
 20
-9.98839
 30
0.0
 10
56.51423
 20
-9.87524
 30
0.0
 10
56.60891
 20
-9.76329
 30
0.0
 10
56.60891
 20
-9.76329
 30
0.0
 10
56.70419
 20
-9.65194
 30
0.0
 10
56.84115
 20
-9.52271
 30
0.0
 10
57.0198
 20
-9.37622
 30
0.0
 10
57.0198
 20
-9.37622
 30
0.0
 10
57.29789
 20
-9.14815
 30
0.0
 10
57.48606
 20
-8.96772
 30
0.0
 10
57.58372
 20
-8.83433
 30
0.0
 10
57.58372
 20
-8.83433
 30
0.0
 10
57.68138
 20
-8.70154
 30
0.0
 10
57.73021
 20
-8.57529
 30
0.0
 10
57.73021
 20
-8.45679
 30
0.0
 10
57.73021
 20
-8.45679
 30
0.0
 10
57.73021
 20
-8.33233
 30
0.0
 10
57.68555
 20
-8.22753
 30
0.0
 10
57.59682
 20
-8.14178
 30
0.0
 10
57.59682
 20
-8.14178
 30
0.0
 10
57.5075
 20
-8.05662
 30
0.0
 10
57.39138
 20
-8.01375
 30
0.0
 10
57.24846
 20
-8.01375
 30
0.0
 10
57.24846
 20
-8.01375
 30
0.0
 10
57.09721
 20
-8.01375
 30
0.0
 10
56.97632
 20
-8.059
 30
0.0
 10
56.88581
 20
-8.15011
 30
0.0
 10
56.88581
 20
-8.15011
 30
0.0
 10
56.7947
 20
-8.24063
 30
0.0
 10
56.74885
 20
-8.36628
 30
0.0
 10
56.74766
 20
-8.52646
 30
0.0
 10
56.74766
 20
-8.52646
 30
0.0
 10
56.74766
 20
-8.52646
 30
0.0
 10
56.4249
 20
-8.49371
 30
0.0
 10
56.4249
 20
-8.49371
 30
0.0
 10
56.4249
 20
-8.49371
 30
0.0
 10
56.44694
 20
-8.25254
 30
0.0
 10
56.5303
 20
-8.06913
 30
0.0
 10
56.67441
 20
-7.94288
 30
0.0
 10
56.67441
 20
-7.94288
 30
0.0
 10
56.81852
 20
-7.81664
 30
0.0
 10
57.01265
 20
-7.75352
 30
0.0
 10
57.25561
 20
-7.75352
 30
0.0
 10
57.25561
 20
-7.75352
 30
0.0
 10
57.50095
 20
-7.75352
 30
0.0
 10
57.69508
 20
-7.822
 30
0.0
 10
57.838
 20
-7.95777
 30
0.0
 10
57.838
 20
-7.95777
 30
0.0
 10
57.98151
 20
-8.09414
 30
0.0
 10
58.05297
 20
-8.26266
 30
0.0
 10
58.05297
 20
-8.46394
 30
0.0
 10
58.05297
 20
-8.46394
 30
0.0
 10
58.05297
 20
-8.56636
 30
0.0
 10
58.03213
 20
-8.667
 30
0.0
 10
57.98985
 20
-8.76585
 30
0.0
 10
57.98985
 20
-8.76585
 30
0.0
 10
57.94816
 20
-8.8647
 30
0.0
 10
57.87849
 20
-8.96891
 30
0.0
 10
57.78142
 20
-9.07788
 30
0.0
 10
57.78142
 20
-9.07788
 30
0.0
 10
57.68436
 20
-9.18745
 30
0.0
 10
57.52298
 20
-9.33752
 30
0.0
 10
57.29729
 20
-9.52807
 30
0.0
 10
57.29729
 20
-9.52807
 30
0.0
 10
57.10912
 20
-9.68647
 30
0.0
 10
56.98823
 20
-9.79366
 30
0.0
 10
56.93464
 20
-9.85023
 30
0.0
 10
56.93464
 20
-9.85023
 30
0.0
 10
56.88105
 20
-9.90621
 30
0.0
 10
56.83698
 20
-9.96278
 30
0.0
 10
56.80185
 20
-10.01995
 30
0.0
 10
56.80185
 20
-10.01995
 30
0.0
 10
56.80185
 20
-10.01995
 30
0.0
 10
58.05654
 20
-10.01995
 30
0.0
 10
58.05654
 20
-10.01995
 30
0.0
  0
SPLINE
  5
68
330
1F
100
AcDbEntity
  8
layer 1
 62
   250
100
AcDbSpline
210
0.0
220
0.0
230
1.0
 70
    11
 71
     3
 72
    80
 73
    76
 74
     0
 42
0.0000000001
 43
0.0000000001
 40
0.0
 40
0.0
 40
0.0
 40
0.0
 40
0.0526315789473684
 40
0.0526315789473684
 40
0.0526315789473684
 40
0.0526315789473684
 40
0.1052631578947368
 40
0.1052631578947368
 40
0.1052631578947368
 40
0.1052631578947368
 40
0.1578947368421053
 40
0.1578947368421053
 40
0.1578947368421053
 40
0.1578947368421053
 40
0.2105263157894737
 40
0.2105263157894737
 40
0.2105263157894737
 40
0.2105263157894737
 40
0.2631578947368421
 40
0.2631578947368421
 40
0.2631578947368421
 40
0.2631578947368421
 40
0.3157894736842105
 40
0.3157894736842105
 40
0.3157894736842105
 40
0.3157894736842105
 40
0.3684210526315789
 40
0.3684210526315789
 40
0.3684210526315789
 40
0.3684210526315789
 40
0.4210526315789473
 40
0.4210526315789473
 40
0.4210526315789473
 40
0.4210526315789473
 40
0.4736842105263158
 40
0.4736842105263158
 40
0.4736842105263158
 40
0.4736842105263158
 40
0.5263157894736842
 40
0.5263157894736842
 40
0.5263157894736842
 40
0.5263157894736842
 40
0.5789473684210527
 40
0.5789473684210527
 40
0.5789473684210527
 40
0.5789473684210527
 40
0.631578947368421
 40
0.631578947368421
 40
0.631578947368421
 40
0.631578947368421
 40
0.6842105263157894
 40
0.6842105263157894
 40
0.6842105263157894
 40
0.6842105263157894
 40
0.7368421052631577
 40
0.7368421052631577
 40
0.7368421052631577
 40
0.7368421052631577
 40
0.7894736842105261
 40
0.7894736842105261
 40
0.7894736842105261
 40
0.7894736842105261
 40
0.8421052631578945
 40
0.8421052631578945
 40
0.8421052631578945
 40
0.8421052631578945
 40
0.8947368421052628
 40
0.8947368421052628
 40
0.8947368421052628
 40
0.8947368421052628
 40
0.9473684210526312
 40
0.9473684210526312
 40
0.9473684210526312
 40
0.9473684210526312
 40
1.0
 40
1.0
 40
1.0
 40
1.0
 10
60.22078
 20
-8.39069
 30
0.0
 10
60.22078
 20
-8.39069
 30
0.0
 10
59.90875
 20
-8.41511
 30
0.0
 10
59.90875
 20
-8.41511
 30
0.0
 10
59.90875
 20
-8.41511
 30
0.0
 10
59.88076
 20
-8.29184
 30
0.0
 10
59.84146
 20
-8.20192
 30
0.0
 10
59.79024
 20
-8.14654
 30
0.0
 10
59.79024
 20
-8.14654
 30
0.0
 10
59.70509
 20
-8.05662
 30
0.0
 10
59.60028
 20
-8.01196
 30
0.0
 10
59.47583
 20
-8.01196
 30
0.0
 10
59.47583
 20
-8.01196
 30
0.0
 10
59.37578
 20
-8.01196
 30
0.0
 10
59.28825
 20
-8.03995
 30
0.0
 10
59.21262
 20
-8.09592
 30
0.0
 10
59.21262
 20
-8.09592
 30
0.0
 10
59.11377
 20
-8.16798
 30
0.0
 10
59.03576
 20
-8.27338
 30
0.0
 10
58.97859
 20
-8.41153
 30
0.0
 10
58.97859
 20
-8.41153
 30
0.0
 10
58.92202
 20
-8.54969
 30
0.0
 10
58.89225
 20
-8.74679
 30
0.0
 10
58.88987
 20
-9.00285
 30
0.0
 10
58.88987
 20
-9.00285
 30
0.0
 10
58.96549
 20
-8.88792
 30
0.0
 10
59.05779
 20
-8.80217
 30
0.0
 10
59.16736
 20
-8.7462
 30
0.0
 10
59.16736
 20
-8.7462
 30
0.0
 10
59.27634
 20
-8.69082
 30
0.0
 10
59.39127
 20
-8.66283
 30
0.0
 10
59.51096
 20
-8.66283
 30
0.0
 10
59.51096
 20
-8.66283
 30
0.0
 10
59.72057
 20
-8.66283
 30
0.0
 10
59.89862
 20
-8.73965
 30
0.0
 10
60.04571
 20
-8.89388
 30
0.0
 10
60.04571
 20
-8.89388
 30
0.0
 10
60.19279
 20
-9.04811
 30
0.0
 10
60.26664
 20
-9.247
 30
0.0
 10
60.26664
 20
-9.49115
 30
0.0
 10
60.26664
 20
-9.49115
 30
0.0
 10
60.26664
 20
-9.65194
 30
0.0
 10
60.2315
 20
-9.80081
 30
0.0
 10
60.16242
 20
-9.93896
 30
0.0
 10
60.16242
 20
-9.93896
 30
0.0
 10
60.09335
 20
-10.07652
 30
0.0
 10
59.99807
 20
-10.18252
 30
0.0
 10
59.87719
 20
-10.25576
 30
0.0
 10
59.87719
 20
-10.25576
 30
0.0
 10
59.7563
 20
-10.32901
 30
0.0
 10
59.61934
 20
-10.36533
 30
0.0
 10
59.4657
 20
-10.36533
 30
0.0
 10
59.4657
 20
-10.36533
 30
0.0
 10
59.20369
 20
-10.36533
 30
0.0
 10
58.9905
 20
-10.26946
 30
0.0
 10
58.82555
 20
-10.07652
 30
0.0
 10
58.82555
 20
-10.07652
 30
0.0
 10
58.66001
 20
-9.88418
 30
0.0
 10
58.57783
 20
-9.56678
 30
0.0
 10
58.57783
 20
-9.12493
 30
0.0
 10
58.57783
 20
-9.12493
 30
0.0
 10
58.57783
 20
-8.63067
 30
0.0
 10
58.66894
 20
-8.27159
 30
0.0
 10
58.85176
 20
-8.04709
 30
0.0
 10
58.85176
 20
-8.04709
 30
0.0
 10
59.01075
 20
-7.85177
 30
0.0
 10
59.22513
 20
-7.75352
 30
0.0
 10
59.49548
 20
-7.75352
 30
0.0
 10
59.49548
 20
-7.75352
 30
0.0
 10
59.69616
 20
-7.75352
 30
0.0
 10
59.86111
 20
-7.81009
 30
0.0
 10
59.98973
 20
-7.92323
 30
0.0
 10
59.98973
 20
-7.92323
 30
0.0
 10
60.11836
 20
-8.03578
 30
0.0
 10
60.19518
 20
-8.1918
 30
0.0
 10
60.22078
 20
-8.39069
 30
0.0
  0
SPLINE
  5
69
330
1F
100
AcDbEntity
  8
layer 1
 62
   250
100
AcDbSpline
210
0.0
220
0.0
230
1.0
 70
    11
 71
     3
 72
    40
 73
    36
 74
     0
 42
0.0000000001
 43
0.0000000001
 40
0.0
 40
0.0
 40
0.0
 40
0.0
 40
0.1111111111111111
 40
0.1111111111111111
 40
0.1111111111111111
 40
0.1111111111111111
 40
0.2222222222222222
 40
0.2222222222222222
 40
0.2222222222222222
 40
0.2222222222222222
 40
0.3333333333333333
 40
0.3333333333333333
 40
0.3333333333333333
 40
0.3333333333333333
 40
0.4444444444444444
 40
0.4444444444444444
 40
0.4444444444444444
 40
0.4444444444444444
 40
0.5555555555555556
 40
0.5555555555555556
 40
0.5555555555555556
 40
0.5555555555555556
 40
0.6666666666666667
 40
0.6666666666666667
 40
0.6666666666666667
 40
0.6666666666666667
 40
0.7777777777777779
 40
0.7777777777777779
 40
0.7777777777777779
 40
0.7777777777777779
 40
0.8888888888888891
 40
0.8888888888888891
 40
0.8888888888888891
 40
0.8888888888888891
 40
1.0
 40
1.0
 40
1.0
 40
1.0
 10
58.9387
 20
-9.49294
 30
0.0
 10
58.9387
 20
-9.60132
 30
0.0
 10
58.96192
 20
-9.70493
 30
0.0
 10
59.00777
 20
-9.80379
 30
0.0
 10
59.00777
 20
-9.80379
 30
0.0
 10
59.05363
 20
-9.90264
 30
0.0
 10
59.11794
 20
-9.97767
 30
0.0
 10
59.20012
 20
-10.02948
 30
0.0
 10
59.20012
 20
-10.02948
 30
0.0
 10
59.28289
 20
-10.08128
 30
0.0
 10
59.36983
 20
-10.10748
 30
0.0
 10
59.46034
 20
-10.10748
 30
0.0
 10
59.46034
 20
-10.10748
 30
0.0
 10
59.59314
 20
-10.10748
 30
0.0
 10
59.70688
 20
-10.05389
 30
0.0
 10
59.80215
 20
-9.9467
 30
0.0
 10
59.80215
 20
-9.9467
 30
0.0
 10
59.89743
 20
-9.83951
 30
0.0
 10
59.94507
 20
-9.69422
 30
0.0
 10
59.94507
 20
-9.5108
 30
0.0
 10
59.94507
 20
-9.5108
 30
0.0
 10
59.94507
 20
-9.33394
 30
0.0
 10
59.89803
 20
-9.1946
 30
0.0
 10
59.80394
 20
-9.09277
 30
0.0
 10
59.80394
 20
-9.09277
 30
0.0
 10
59.70985
 20
-8.99094
 30
0.0
 10
59.59135
 20
-8.94033
 30
0.0
 10
59.44843
 20
-8.94033
 30
0.0
 10
59.44843
 20
-8.94033
 30
0.0
 10
59.30611
 20
-8.94033
 30
0.0
 10
59.18582
 20
-8.99094
 30
0.0
 10
59.08697
 20
-9.09277
 30
0.0
 10
59.08697
 20
-9.09277
 30
0.0
 10
58.98812
 20
-9.1946
 30
0.0
 10
58.9387
 20
-9.32799
 30
0.0
 10
58.9387
 20
-9.49294
 30
0.0
  0
SPLINE
  5
6A
330
1F
100
AcDbEntity
  8
layer 1
 62
   250
100
AcDbSpline
210
0.0
220
0.0
230
1.0
 70
    11
 71
     3
 72
    92
 73
    88
 74
     0
 42
0.0000000001
 43
0.0000000001
 40
0.0
 40
0.0
 40
0.0
 40
0.0
 40
0.0454545454545455
 40
0.0454545454545455
 40
0.0454545454545455
 40
0.0454545454545455
 40
0.0909090909090909
 40
0.0909090909090909
 40
0.0909090909090909
 40
0.0909090909090909
 40
0.1363636363636364
 40
0.1363636363636364
 40
0.1363636363636364
 40
0.1363636363636364
 40
0.1818181818181818
 40
0.1818181818181818
 40
0.1818181818181818
 40
0.1818181818181818
 40
0.2272727272727273
 40
0.2272727272727273
 40
0.2272727272727273
 40
0.2272727272727273
 40
0.2727272727272728
 40
0.2727272727272728
 40
0.2727272727272728
 40
0.2727272727272728
 40
0.3181818181818182
 40
0.3181818181818182
 40
0.3181818181818182
 40
0.3181818181818182
 40
0.3636363636363637
 40
0.3636363636363637
 40
0.3636363636363637
 40
0.3636363636363637
 40
0.4090909090909092
 40
0.4090909090909092
 40
0.4090909090909092
 40
0.4090909090909092
 40
0.4545454545454546
 40
0.4545454545454546
 40
0.4545454545454546
 40
0.4545454545454546
 40
0.5000000000000001
 40
0.5000000000000001
 40
0.5000000000000001
 40
0.5000000000000001
 40
0.5454545454545455
 40
0.5454545454545455
 40
0.5454545454545455
 40
0.5454545454545455
 40
0.5909090909090909
 40
0.5909090909090909
 40
0.5909090909090909
 40
0.5909090909090909
 40
0.6363636363636364
 40
0.6363636363636364
 40
0.6363636363636364
 40
0.6363636363636364
 40
0.6818181818181818
 40
0.6818181818181818
 40
0.6818181818181818
 40
0.6818181818181818
 40
0.7272727272727272
 40
0.7272727272727272
 40
0.7272727272727272
 40
0.7272727272727272
 40
0.7727272727272726
 40
0.7727272727272726
 40
0.7727272727272726
 40
0.7727272727272726
 40
0.818181818181818
 40
0.818181818181818
 40
0.818181818181818
 40
0.818181818181818
 40
0.8636363636363634
 40
0.8636363636363634
 40
0.8636363636363634
 40
0.8636363636363634
 40
0.9090909090909088
 40
0.9090909090909088
 40
0.9090909090909088
 40
0.9090909090909088
 40
0.9545454545454543
 40
0.9545454545454543
 40
0.9545454545454543
 40
0.9545454545454543
 40
1.0
 40
1.0
 40
1.0
 40
1.0
 10
60.77721
 20
-9.65194
 30
0.0
 10
60.77721
 20
-9.65194
 30
0.0
 10
61.10711
 20
-9.62395
 30
0.0
 10
61.10711
 20
-9.62395
 30
0.0
 10
61.10711
 20
-9.62395
 30
0.0
 10
61.13152
 20
-9.78473
 30
0.0
 10
61.18809
 20
-9.90502
 30
0.0
 10
61.27682
 20
-9.986
 30
0.0
 10
61.27682
 20
-9.986
 30
0.0
 10
61.36614
 20
-10.06699
 30
0.0
 10
61.47333
 20
-10.10748
 30
0.0
 10
61.59898
 20
-10.10748
 30
0.0
 10
61.59898
 20
-10.10748
 30
0.0
 10
61.75023
 20
-10.10748
 30
0.0
 10
61.87826
 20
-10.05032
 30
0.0
 10
61.98248
 20
-9.93658
 30
0.0
 10
61.98248
 20
-9.93658
 30
0.0
 10
62.08728
 20
-9.82225
 30
0.0
 10
62.13968
 20
-9.67099
 30
0.0
 10
62.13968
 20
-9.48282
 30
0.0
 10
62.13968
 20
-9.48282
 30
0.0
 10
62.13968
 20
-9.30357
 30
0.0
 10
62.08966
 20
-9.16244
 30
0.0
 10
61.98903
 20
-9.05883
 30
0.0
 10
61.98903
 20
-9.05883
 30
0.0
 10
61.88839
 20
-8.95521
 30
0.0
 10
61.75678
 20
-8.90341
 30
0.0
 10
61.59362
 20
-8.90341
 30
0.0
 10
61.59362
 20
-8.90341
 30
0.0
 10
61.49239
 20
-8.90341
 30
0.0
 10
61.40128
 20
-8.92663
 30
0.0
 10
61.3197
 20
-8.97248
 30
0.0
 10
61.3197
 20
-8.97248
 30
0.0
 10
61.23811
 20
-9.01834
 30
0.0
 10
61.1744
 20
-9.07788
 30
0.0
 10
61.12795
 20
-9.15113
 30
0.0
 10
61.12795
 20
-9.15113
 30
0.0
 10
61.12795
 20
-9.15113
 30
0.0
 10
60.83318
 20
-9.11302
 30
0.0
 10
60.83318
 20
-9.11302
 30
0.0
 10
60.83318
 20
-9.11302
 30
0.0
 10
60.83318
 20
-9.11302
 30
0.0
 10
61.08091
 20
-7.79937
 30
0.0
 10
61.08091
 20
-7.79937
 30
0.0
 10
61.08091
 20
-7.79937
 30
0.0
 10
61.08091
 20
-7.79937
 30
0.0
 10
62.35287
 20
-7.79937
 30
0.0
 10
62.35287
 20
-7.79937
 30
0.0
 10
62.35287
 20
-7.79937
 30
0.0
 10
62.35287
 20
-7.79937
 30
0.0
 10
62.35287
 20
-8.0995
 30
0.0
 10
62.35287
 20
-8.0995
 30
0.0
 10
62.35287
 20
-8.0995
 30
0.0
 10
62.35287
 20
-8.0995
 30
0.0
 10
61.3322
 20
-8.0995
 30
0.0
 10
61.3322
 20
-8.0995
 30
0.0
 10
61.3322
 20
-8.0995
 30
0.0
 10
61.3322
 20
-8.0995
 30
0.0
 10
61.19405
 20
-8.78669
 30
0.0
 10
61.19405
 20
-8.78669
 30
0.0
 10
61.19405
 20
-8.78669
 30
0.0
 10
61.34768
 20
-8.6795
 30
0.0
 10
61.50906
 20
-8.62591
 30
0.0
 10
61.67758
 20
-8.62591
 30
0.0
 10
61.67758
 20
-8.62591
 30
0.0
 10
61.90089
 20
-8.62591
 30
0.0
 10
62.08907
 20
-8.70332
 30
0.0
 10
62.2427
 20
-8.85815
 30
0.0
 10
62.2427
 20
-8.85815
 30
0.0
 10
62.39634
 20
-9.01298
 30
0.0
 10
62.47316
 20
-9.21187
 30
0.0
 10
62.47316
 20
-9.45483
 30
0.0
 10
62.47316
 20
-9.45483
 30
0.0
 10
62.47316
 20
-9.68647
 30
0.0
 10
62.40527
 20
-9.88656
 30
0.0
 10
62.27069
 20
-10.05508
 30
0.0
 10
62.27069
 20
-10.05508
 30
0.0
 10
62.10634
 20
-10.26172
 30
0.0
 10
61.88243
 20
-10.36533
 30
0.0
 10
61.59898
 20
-10.36533
 30
0.0
 10
61.59898
 20
-10.36533
 30
0.0
 10
61.36614
 20
-10.36533
 30
0.0
 10
61.17618
 20
-10.30042
 30
0.0
 10
61.0291
 20
-10.17001
 30
0.0
 10
61.0291
 20
-10.17001
 30
0.0
 10
60.88201
 20
-10.0396
 30
0.0
 10
60.79805
 20
-9.86691
 30
0.0
 10
60.77721
 20
-9.65194
 30
0.0
  0
SPLINE
  5
6B
330
1F
100
AcDbEntity
  8
layer 1
 62
   250
100
AcDbSpline
210
0.0
220
0.0
230
1.0
 70
    11
 71
     3
 72
   124
 73
   120
 74
     0
 42
0.0000000001
 43
0.0000000001
 40
0.0
 40
0.0
 40
0.0
 40
0.0
 40
0.0333333333333333
 40
0.0333333333333333
 40
0.0333333333333333
 40
0.0333333333333333
 40
0.0666666666666667
 40
0.0666666666666667
 40
0.0666666666666667
 40
0.0666666666666667
 40
0.1
 40
0.1
 40
0.1
 40
0.1
 40
0.1333333333333333
 40
0.1333333333333333
 40
0.1333333333333333
 40
0.1333333333333333
 40
0.1666666666666667
 40
0.1666666666666667
 40
0.1666666666666667
 40
0.1666666666666667
 40
0.2
 40
0.2
 40
0.2
 40
0.2
 40
0.2333333333333333
 40
0.2333333333333333
 40
0.2333333333333333
 40
0.2333333333333333
 40
0.2666666666666667
 40
0.2666666666666667
 40
0.2666666666666667
 40
0.2666666666666667
 40
0.3
 40
0.3
 40
0.3
 40
0.3
 40
0.3333333333333333
 40
0.3333333333333333
 40
0.3333333333333333
 40
0.3333333333333333
 40
0.3666666666666666
 40
0.3666666666666666
 40
0.3666666666666666
 40
0.3666666666666666
 40
0.4
 40
0.4
 40
0.4
 40
0.4
 40
0.4333333333333333
 40
0.4333333333333333
 40
0.4333333333333333
 40
0.4333333333333333
 40
0.4666666666666666
 40
0.4666666666666666
 40
0.4666666666666666
 40
0.4666666666666666
 40
0.4999999999999999
 40
0.4999999999999999
 40
0.4999999999999999
 40
0.4999999999999999
 40
0.5333333333333333
 40
0.5333333333333333
 40
0.5333333333333333
 40
0.5333333333333333
 40
0.5666666666666667
 40
0.5666666666666667
 40
0.5666666666666667
 40
0.5666666666666667
 40
0.6
 40
0.6
 40
0.6
 40
0.6
 40
0.6333333333333333
 40
0.6333333333333333
 40
0.6333333333333333
 40
0.6333333333333333
 40
0.6666666666666666
 40
0.6666666666666666
 40
0.6666666666666666
 40
0.6666666666666666
 40
0.7
 40
0.7
 40
0.7
 40
0.7
 40
0.7333333333333333
 40
0.7333333333333333
 40
0.7333333333333333
 40
0.7333333333333333
 40
0.7666666666666666
 40
0.7666666666666666
 40
0.7666666666666666
 40
0.7666666666666666
 40
0.7999999999999999
 40
0.7999999999999999
 40
0.7999999999999999
 40
0.7999999999999999
 40
0.8333333333333333
 40
0.8333333333333333
 40
0.8333333333333333
 40
0.8333333333333333
 40
0.8666666666666666
 40
0.8666666666666666
 40
0.8666666666666666
 40
0.8666666666666666
 40
0.8999999999999999
 40
0.8999999999999999
 40
0.8999999999999999
 40
0.8999999999999999
 40
0.9333333333333332
 40
0.9333333333333332
 40
0.9333333333333332
 40
0.9333333333333332
 40
0.9666666666666666
 40
0.9666666666666666
 40
0.9666666666666666
 40
0.9666666666666666
 40
1.0
 40
1.0
 40
1.0
 40
1.0
 10
23.09586
 20
-10.18192
 30
0.0
 10
23.2358
 20
-10.18192
 30
0.0
 10
23.3543
 20
-10.13547
 30
0.0
 10
23.45196
 20
-10.04258
 30
0.0
 10
23.45196
 20
-10.04258
 30
0.0
 10
23.54962
 20
-9.94908
 30
0.0
 10
23.59845
 20
-9.83296
 30
0.0
 10
23.59845
 20
-9.69362
 30
0.0
 10
23.59845
 20
-9.69362
 30
0.0
 10
23.59845
 20
-9.69362
 30
0.0
 10
23.59845
 20
-8.07449
 30
0.0
 10
23.59845
 20
-8.07449
 30
0.0
 10
23.59845
 20
-8.07449
 30
0.0
 10
23.59845
 20
-8.03757
 30
0.0
 10
23.58892
 20
-8.00958
 30
0.0
 10
23.57046
 20
-7.99112
 30
0.0
 10
23.57046
 20
-7.99112
 30
0.0
 10
23.552
 20
-7.97266
 30
0.0
 10
23.51925
 20
-7.96313
 30
0.0
 10
23.4728
 20
-7.96313
 30
0.0
 10
23.4728
 20
-7.96313
 30
0.0
 10
23.4728
 20
-7.96313
 30
0.0
 10
23.38884
 20
-7.96313
 30
0.0
 10
23.38884
 20
-7.96313
 30
0.0
 10
23.38884
 20
-7.96313
 30
0.0
 10
23.38884
 20
-7.96313
 30
0.0
 10
23.38884
 20
-7.87917
 30
0.0
 10
23.38884
 20
-7.87917
 30
0.0
 10
23.38884
 20
-7.87917
 30
0.0
 10
23.38884
 20
-7.87917
 30
0.0
 10
23.89203
 20
-7.87917
 30
0.0
 10
23.89203
 20
-7.87917
 30
0.0
 10
23.89203
 20
-7.87917
 30
0.0
 10
23.89203
 20
-7.87917
 30
0.0
 10
23.89203
 20
-7.96313
 30
0.0
 10
23.89203
 20
-7.96313
 30
0.0
 10
23.89203
 20
-7.96313
 30
0.0
 10
23.89203
 20
-7.96313
 30
0.0
 10
23.80806
 20
-7.96313
 30
0.0
 10
23.80806
 20
-7.96313
 30
0.0
 10
23.80806
 20
-7.96313
 30
0.0
 10
23.77114
 20
-7.96313
 30
0.0
 10
23.74077
 20
-7.97266
 30
0.0
 10
23.71755
 20
-7.99112
 30
0.0
 10
23.71755
 20
-7.99112
 30
0.0
 10
23.69432
 20
-8.00958
 30
0.0
 10
23.68241
 20
-8.03757
 30
0.0
 10
23.68241
 20
-8.07449
 30
0.0
 10
23.68241
 20
-8.07449
 30
0.0
 10
23.68241
 20
-8.07449
 30
0.0
 10
23.68241
 20
-9.69362
 30
0.0
 10
23.68241
 20
-9.69362
 30
0.0
 10
23.68241
 20
-9.69362
 30
0.0
 10
23.68241
 20
-9.88001
 30
0.0
 10
23.61989
 20
-10.0265
 30
0.0
 10
23.49424
 20
-10.13309
 30
0.0
 10
23.49424
 20
-10.13309
 30
0.0
 10
23.36859
 20
-10.24028
 30
0.0
 10
23.22627
 20
-10.29387
 30
0.0
 10
23.06847
 20
-10.29387
 30
0.0
 10
23.06847
 20
-10.29387
 30
0.0
 10
22.90054
 20
-10.29387
 30
0.0
 10
22.75405
 20
-10.24742
 30
0.0
 10
22.6284
 20
-10.15453
 30
0.0
 10
22.6284
 20
-10.15453
 30
0.0
 10
22.50275
 20
-10.06104
 30
0.0
 10
22.44023
 20
-9.91216
 30
0.0
 10
22.44023
 20
-9.70791
 30
0.0
 10
22.44023
 20
-9.70791
 30
0.0
 10
22.44023
 20
-9.70791
 30
0.0
 10
22.44023
 20
-8.07449
 30
0.0
 10
22.44023
 20
-8.07449
 30
0.0
 10
22.44023
 20
-8.07449
 30
0.0
 10
22.44023
 20
-8.03757
 30
0.0
 10
22.4307
 20
-8.00958
 30
0.0
 10
22.41224
 20
-7.99112
 30
0.0
 10
22.41224
 20
-7.99112
 30
0.0
 10
22.39378
 20
-7.97266
 30
0.0
 10
22.36103
 20
-7.96313
 30
0.0
 10
22.31458
 20
-7.96313
 30
0.0
 10
22.31458
 20
-7.96313
 30
0.0
 10
22.31458
 20
-7.96313
 30
0.0
 10
22.24491
 20
-7.96313
 30
0.0
 10
22.24491
 20
-7.96313
 30
0.0
 10
22.24491
 20
-7.96313
 30
0.0
 10
22.24491
 20
-7.96313
 30
0.0
 10
22.24491
 20
-7.87917
 30
0.0
 10
22.24491
 20
-7.87917
 30
0.0
 10
22.24491
 20
-7.87917
 30
0.0
 10
22.24491
 20
-7.87917
 30
0.0
 10
22.85885
 20
-7.87917
 30
0.0
 10
22.85885
 20
-7.87917
 30
0.0
 10
22.85885
 20
-7.87917
 30
0.0
 10
22.85885
 20
-7.87917
 30
0.0
 10
22.85885
 20
-7.96313
 30
0.0
 10
22.85885
 20
-7.96313
 30
0.0
 10
22.85885
 20
-7.96313
 30
0.0
 10
22.85885
 20
-7.96313
 30
0.0
 10
22.78918
 20
-7.96313
 30
0.0
 10
22.78918
 20
-7.96313
 30
0.0
 10
22.78918
 20
-7.96313
 30
0.0
 10
22.75167
 20
-7.96313
 30
0.0
 10
22.72189
 20
-7.97266
 30
0.0
 10
22.69867
 20
-7.99112
 30
0.0
 10
22.69867
 20
-7.99112
 30
0.0
 10
22.67544
 20
-8.00958
 30
0.0
 10
22.66353
 20
-8.03757
 30
0.0
 10
22.66353
 20
-8.07449
 30
0.0
 10
22.66353
 20
-8.07449
 30
0.0
 10
22.66353
 20
-8.07449
 30
0.0
 10
22.66353
 20
-9.70732
 30
0.0
 10
22.66353
 20
-9.70732
 30
0.0
 10
22.66353
 20
-9.70732
 30
0.0
 10
22.66353
 20
-9.8937
 30
0.0
 10
22.70284
 20
-10.01935
 30
0.0
 10
22.78204
 20
-10.08426
 30
0.0
 10
22.78204
 20
-10.08426
 30
0.0
 10
22.86124
 20
-10.14917
 30
0.0
 10
22.96604
 20
-10.18192
 30
0.0
 10
23.09586
 20
-10.18192
 30
0.0
  0
SPLINE
  5
6C
330
1F
100
AcDbEntity
  8
layer 1
 62
   250
100
AcDbSpline
210
0.0
220
0.0
230
1.0
 70
    11
 71
     3
 72
   100
 73
    96
 74
     0
 42
0.0000000001
 43
0.0000000001
 40
0.0
 40
0.0
 40
0.0
 40
0.0
 40
0.0416666666666667
 40
0.0416666666666667
 40
0.0416666666666667
 40
0.0416666666666667
 40
0.0833333333333333
 40
0.0833333333333333
 40
0.0833333333333333
 40
0.0833333333333333
 40
0.125
 40
0.125
 40
0.125
 40
0.125
 40
0.1666666666666667
 40
0.1666666666666667
 40
0.1666666666666667
 40
0.1666666666666667
 40
0.2083333333333333
 40
0.2083333333333333
 40
0.2083333333333333
 40
0.2083333333333333
 40
0.25
 40
0.25
 40
0.25
 40
0.25
 40
0.2916666666666666
 40
0.2916666666666666
 40
0.2916666666666666
 40
0.2916666666666666
 40
0.3333333333333333
 40
0.3333333333333333
 40
0.3333333333333333
 40
0.3333333333333333
 40
0.375
 40
0.375
 40
0.375
 40
0.375
 40
0.4166666666666667
 40
0.4166666666666667
 40
0.4166666666666667
 40
0.4166666666666667
 40
0.4583333333333334
 40
0.4583333333333334
 40
0.4583333333333334
 40
0.4583333333333334
 40
0.5
 40
0.5
 40
0.5
 40
0.5
 40
0.5416666666666666
 40
0.5416666666666666
 40
0.5416666666666666
 40
0.5416666666666666
 40
0.5833333333333333
 40
0.5833333333333333
 40
0.5833333333333333
 40
0.5833333333333333
 40
0.6249999999999999
 40
0.6249999999999999
 40
0.6249999999999999
 40
0.6249999999999999
 40
0.6666666666666665
 40
0.6666666666666665
 40
0.6666666666666665
 40
0.6666666666666665
 40
0.7083333333333331
 40
0.7083333333333331
 40
0.7083333333333331
 40
0.7083333333333331
 40
0.7499999999999998
 40
0.7499999999999998
 40
0.7499999999999998
 40
0.7499999999999998
 40
0.7916666666666664
 40
0.7916666666666664
 40
0.7916666666666664
 40
0.7916666666666664
 40
0.833333333333333
 40
0.833333333333333
 40
0.833333333333333
 40
0.833333333333333
 40
0.8749999999999997
 40
0.8749999999999997
 40
0.8749999999999997
 40
0.8749999999999997
 40
0.9166666666666663
 40
0.9166666666666663
 40
0.9166666666666663
 40
0.9166666666666663
 40
0.9583333333333329
 40
0.9583333333333329
 40
0.9583333333333329
 40
0.9583333333333329
 40
1.0
 40
1.0
 40
1.0
 40
1.0
 10
25.57488
 20
-10.26588
 30
0.0
 10
25.57488
 20
-10.26588
 30
0.0
 10
24.84898
 20
-10.26588
 30
0.0
 10
24.84898
 20
-10.26588
 30
0.0
 10
24.84898
 20
-10.26588
 30
0.0
 10
24.84898
 20
-10.26588
 30
0.0
 10
24.84898
 20
-10.18192
 30
0.0
 10
24.84898
 20
-10.18192
 30
0.0
 10
24.84898
 20
-10.18192
 30
0.0
 10
24.84898
 20
-10.18192
 30
0.0
 10
24.97463
 20
-10.18192
 30
0.0
 10
24.97463
 20
-10.18192
 30
0.0
 10
24.97463
 20
-10.18192
 30
0.0
 10
25.02107
 20
-10.18192
 30
0.0
 10
25.05383
 20
-10.17239
 30
0.0
 10
25.07229
 20
-10.15393
 30
0.0
 10
25.07229
 20
-10.15393
 30
0.0
 10
25.09075
 20
-10.13547
 30
0.0
 10
25.10027
 20
-10.10748
 30
0.0
 10
25.10027
 20
-10.06997
 30
0.0
 10
25.10027
 20
-10.06997
 30
0.0
 10
25.10027
 20
-10.06997
 30
0.0
 10
25.10027
 20
-8.11617
 30
0.0
 10
25.10027
 20
-8.11617
 30
0.0
 10
25.10027
 20
-8.11617
 30
0.0
 10
25.10027
 20
-8.04174
 30
0.0
 10
25.09551
 20
-8.00005
 30
0.0
 10
25.08658
 20
-7.99052
 30
0.0
 10
25.08658
 20
-7.99052
 30
0.0
 10
25.07705
 20
-7.98159
 30
0.0
 10
25.03953
 20
-7.97683
 30
0.0
 10
24.97463
 20
-7.97683
 30
0.0
 10
24.97463
 20
-7.97683
 30
0.0
 10
24.84421
 20
-7.97683
 30
0.0
 10
24.7537
 20
-8.00005
 30
0.0
 10
24.70249
 20
-8.0465
 30
0.0
 10
24.70249
 20
-8.0465
 30
0.0
 10
24.65128
 20
-8.09295
 30
0.0
 10
24.58875
 20
-8.2186
 30
0.0
 10
24.51431
 20
-8.42344
 30
0.0
 10
24.51431
 20
-8.42344
 30
0.0
 10
24.51431
 20
-8.42344
 30
0.0
 10
24.43035
 20
-8.40975
 30
0.0
 10
24.43035
 20
-8.40975
 30
0.0
 10
24.43035
 20
-8.40975
 30
0.0
 10
24.43035
 20
-8.40975
 30
0.0
 10
24.556
 20
-7.87917
 30
0.0
 10
24.556
 20
-7.87917
 30
0.0
 10
24.556
 20
-7.87917
 30
0.0
 10
24.556
 20
-7.87917
 30
0.0
 10
25.88215
 20
-7.87917
 30
0.0
 10
25.88215
 20
-7.87917
 30
0.0
 10
25.88215
 20
-7.87917
 30
0.0
 10
25.88215
 20
-7.87917
 30
0.0
 10
25.99351
 20
-8.40975
 30
0.0
 10
25.99351
 20
-8.40975
 30
0.0
 10
25.99351
 20
-8.40975
 30
0.0
 10
25.99351
 20
-8.40975
 30
0.0
 10
25.92383
 20
-8.42344
 30
0.0
 10
25.92383
 20
-8.42344
 30
0.0
 10
25.92383
 20
-8.42344
 30
0.0
 10
25.8494
 20
-8.22812
 30
0.0
 10
25.79104
 20
-8.10486
 30
0.0
 10
25.74936
 20
-8.05364
 30
0.0
 10
25.74936
 20
-8.05364
 30
0.0
 10
25.70767
 20
-8.00243
 30
0.0
 10
25.62133
 20
-7.97683
 30
0.0
 10
25.49091
 20
-7.97683
 30
0.0
 10
25.49091
 20
-7.97683
 30
0.0
 10
25.39802
 20
-7.97683
 30
0.0
 10
25.34681
 20
-7.98159
 30
0.0
 10
25.33728
 20
-7.99052
 30
0.0
 10
25.33728
 20
-7.99052
 30
0.0
 10
25.32835
 20
-8.00005
 30
0.0
 10
25.32358
 20
-8.0465
 30
0.0
 10
25.32358
 20
-8.13046
 30
0.0
 10
25.32358
 20
-8.13046
 30
0.0
 10
25.32358
 20
-8.13046
 30
0.0
 10
25.32358
 20
-10.06997
 30
0.0
 10
25.32358
 20
-10.06997
 30
0.0
 10
25.32358
 20
-10.06997
 30
0.0
 10
25.32358
 20
-10.10748
 30
0.0
 10
25.33549
 20
-10.13547
 30
0.0
 10
25.35872
 20
-10.15393
 30
0.0
 10
25.35872
 20
-10.15393
 30
0.0
 10
25.38194
 20
-10.17239
 30
0.0
 10
25.41171
 20
-10.18192
 30
0.0
 10
25.44923
 20
-10.18192
 30
0.0
 10
25.44923
 20
-10.18192
 30
0.0
 10
25.44923
 20
-10.18192
 30
0.0
 10
25.57488
 20
-10.18192
 30
0.0
 10
25.57488
 20
-10.18192
 30
0.0
 10
25.57488
 20
-10.18192
 30
0.0
 10
25.57488
 20
-10.18192
 30
0.0
 10
25.57488
 20
-10.26588
 30
0.0
 10
25.57488
 20
-10.26588
 30
0.0
  0
SPLINE
  5
6D
330
1F
100
AcDbEntity
  8
layer 1
 62
   250
100
AcDbSpline
210
0.0
220
0.0
230
1.0
 70
    11
 71
     3
 72
    36
 73
    32
 74
     0
 42
0.0000000001
 43
0.0000000001
 40
0.0
 40
0.0
 40
0.0
 40
0.0
 40
0.125
 40
0.125
 40
0.125
 40
0.125
 40
0.25
 40
0.25
 40
0.25
 40
0.25
 40
0.375
 40
0.375
 40
0.375
 40
0.375
 40
0.5
 40
0.5
 40
0.5
 40
0.5
 40
0.625
 40
0.625
 40
0.625
 40
0.625
 40
0.75
 40
0.75
 40
0.75
 40
0.75
 40
0.875
 40
0.875
 40
0.875
 40
0.875
 40
1.0
 40
1.0
 40
1.0
 40
1.0
 10
28.29627
 20
-9.06538
 30
0.0
 10
28.29627
 20
-9.46555
 30
0.0
 10
28.3451
 20
-9.75615
 30
0.0
 10
28.44276
 20
-9.93777
 30
0.0
 10
28.44276
 20
-9.93777
 30
0.0
 10
28.54042
 20
-10.11939
 30
0.0
 10
28.66369
 20
-10.20991
 30
0.0
 10
28.81315
 20
-10.20991
 30
0.0
 10
28.81315
 20
-10.20991
 30
0.0
 10
28.97096
 20
-10.20991
 30
0.0
 10
29.09661
 20
-10.12356
 30
0.0
 10
29.1901
 20
-9.95147
 30
0.0
 10
29.1901
 20
-9.95147
 30
0.0
 10
29.28299
 20
-9.77937
 30
0.0
 10
29.32944
 20
-9.48401
 30
0.0
 10
29.32944
 20
-9.06538
 30
0.0
 10
29.32944
 20
-9.06538
 30
0.0
 10
29.32944
 20
-8.73072
 30
0.0
 10
29.29014
 20
-8.46036
 30
0.0
 10
29.21094
 20
-8.25611
 30
0.0
 10
29.21094
 20
-8.25611
 30
0.0
 10
29.13174
 20
-8.05126
 30
0.0
 10
28.99895
 20
-7.94884
 30
0.0
 10
28.81315
 20
-7.94884
 30
0.0
 10
28.81315
 20
-7.94884
 30
0.0
 10
28.65475
 20
-7.94884
 30
0.0
 10
28.52911
 20
-8.04174
 30
0.0
 10
28.43561
 20
-8.22812
 30
0.0
 10
28.43561
 20
-8.22812
 30
0.0
 10
28.34272
 20
-8.41392
 30
0.0
 10
28.29627
 20
-8.6932
 30
0.0
 10
28.29627
 20
-9.06538
 30
0.0
  0
SPLINE
  5
6E
330
1F
100
AcDbEntity
  8
layer 1
 62
   250
100
AcDbSpline
210
0.0
220
0.0
230
1.0
 70
    11
 71
     3
 72
    36
 73
    32
 74
     0
 42
0.0000000001
 43
0.0000000001
 40
0.0
 40
0.0
 40
0.0
 40
0.0
 40
0.125
 40
0.125
 40
0.125
 40
0.125
 40
0.25
 40
0.25
 40
0.25
 40
0.25
 40
0.375
 40
0.375
 40
0.375
 40
0.375
 40
0.5
 40
0.5
 40
0.5
 40
0.5
 40
0.625
 40
0.625
 40
0.625
 40
0.625
 40
0.75
 40
0.75
 40
0.75
 40
0.75
 40
0.875
 40
0.875
 40
0.875
 40
0.875
 40
1.0
 40
1.0
 40
1.0
 40
1.0
 10
29.59443
 20
-9.06538
 30
0.0
 10
29.59443
 20
-9.44709
 30
0.0
 10
29.52
 20
-9.74721
 30
0.0
 10
29.37113
 20
-9.96576
 30
0.0
 10
29.37113
 20
-9.96576
 30
0.0
 10
29.22225
 20
-10.1843
 30
0.0
 10
29.03646
 20
-10.29387
 30
0.0
 10
28.81315
 20
-10.29387
 30
0.0
 10
28.81315
 20
-10.29387
 30
0.0
 10
28.59878
 20
-10.29387
 30
0.0
 10
28.41537
 20
-10.18192
 30
0.0
 10
28.26173
 20
-9.95861
 30
0.0
 10
28.26173
 20
-9.95861
 30
0.0
 10
28.1081
 20
-9.7353
 30
0.0
 10
28.03128
 20
-9.43756
 30
0.0
 10
28.03128
 20
-9.06538
 30
0.0
 10
28.03128
 20
-9.06538
 30
0.0
 10
28.03128
 20
-8.70273
 30
0.0
 10
28.10333
 20
-8.40975
 30
0.0
 10
28.24744
 20
-8.18644
 30
0.0
 10
28.24744
 20
-8.18644
 30
0.0
 10
28.39155
 20
-7.96313
 30
0.0
 10
28.58032
 20
-7.85118
 30
0.0
 10
28.81315
 20
-7.85118
 30
0.0
 10
28.81315
 20
-7.85118
 30
0.0
 10
29.05492
 20
-7.85118
 30
0.0
 10
29.24548
 20
-7.96968
 30
0.0
 10
29.38482
 20
-8.20728
 30
0.0
 10
29.38482
 20
-8.20728
 30
0.0
 10
29.52476
 20
-8.44429
 30
0.0
 10
29.59443
 20
-8.73072
 30
0.0
 10
29.59443
 20
-9.06538
 30
0.0
  0
SPLINE
  5
6F
330
1F
100
AcDbEntity
  8
layer 1
 62
   250
100
AcDbSpline
210
0.0
220
0.0
230
1.0
 70
    11
 71
     3
 72
   124
 73
   120
 74
     0
 42
0.0000000001
 43
0.0000000001
 40
0.0
 40
0.0
 40
0.0
 40
0.0
 40
0.0333333333333333
 40
0.0333333333333333
 40
0.0333333333333333
 40
0.0333333333333333
 40
0.0666666666666667
 40
0.0666666666666667
 40
0.0666666666666667
 40
0.0666666666666667
 40
0.1
 40
0.1
 40
0.1
 40
0.1
 40
0.1333333333333333
 40
0.1333333333333333
 40
0.1333333333333333
 40
0.1333333333333333
 40
0.1666666666666667
 40
0.1666666666666667
 40
0.1666666666666667
 40
0.1666666666666667
 40
0.2
 40
0.2
 40
0.2
 40
0.2
 40
0.2333333333333333
 40
0.2333333333333333
 40
0.2333333333333333
 40
0.2333333333333333
 40
0.2666666666666667
 40
0.2666666666666667
 40
0.2666666666666667
 40
0.2666666666666667
 40
0.3
 40
0.3
 40
0.3
 40
0.3
 40
0.3333333333333333
 40
0.3333333333333333
 40
0.3333333333333333
 40
0.3333333333333333
 40
0.3666666666666666
 40
0.3666666666666666
 40
0.3666666666666666
 40
0.3666666666666666
 40
0.4
 40
0.4
 40
0.4
 40
0.4
 40
0.4333333333333333
 40
0.4333333333333333
 40
0.4333333333333333
 40
0.4333333333333333
 40
0.4666666666666666
 40
0.4666666666666666
 40
0.4666666666666666
 40
0.4666666666666666
 40
0.4999999999999999
 40
0.4999999999999999
 40
0.4999999999999999
 40
0.4999999999999999
 40
0.5333333333333333
 40
0.5333333333333333
 40
0.5333333333333333
 40
0.5333333333333333
 40
0.5666666666666667
 40
0.5666666666666667
 40
0.5666666666666667
 40
0.5666666666666667
 40
0.6
 40
0.6
 40
0.6
 40
0.6
 40
0.6333333333333333
 40
0.6333333333333333
 40
0.6333333333333333
 40
0.6333333333333333
 40
0.6666666666666666
 40
0.6666666666666666
 40
0.6666666666666666
 40
0.6666666666666666
 40
0.7
 40
0.7
 40
0.7
 40
0.7
 40
0.7333333333333333
 40
0.7333333333333333
 40
0.7333333333333333
 40
0.7333333333333333
 40
0.7666666666666666
 40
0.7666666666666666
 40
0.7666666666666666
 40
0.7666666666666666
 40
0.7999999999999999
 40
0.7999999999999999
 40
0.7999999999999999
 40
0.7999999999999999
 40
0.8333333333333333
 40
0.8333333333333333
 40
0.8333333333333333
 40
0.8333333333333333
 40
0.8666666666666666
 40
0.8666666666666666
 40
0.8666666666666666
 40
0.8666666666666666
 40
0.8999999999999999
 40
0.8999999999999999
 40
0.8999999999999999
 40
0.8999999999999999
 40
0.9333333333333332
 40
0.9333333333333332
 40
0.9333333333333332
 40
0.9333333333333332
 40
0.9666666666666666
 40
0.9666666666666666
 40
0.9666666666666666
 40
0.9666666666666666
 40
1.0
 40
1.0
 40
1.0
 40
1.0
 10
30.95632
 20
-10.18192
 30
0.0
 10
31.09626
 20
-10.18192
 30
0.0
 10
31.21476
 20
-10.13547
 30
0.0
 10
31.31242
 20
-10.04258
 30
0.0
 10
31.31242
 20
-10.04258
 30
0.0
 10
31.41008
 20
-9.94908
 30
0.0
 10
31.45891
 20
-9.83296
 30
0.0
 10
31.45891
 20
-9.69362
 30
0.0
 10
31.45891
 20
-9.69362
 30
0.0
 10
31.45891
 20
-9.69362
 30
0.0
 10
31.45891
 20
-8.07449
 30
0.0
 10
31.45891
 20
-8.07449
 30
0.0
 10
31.45891
 20
-8.07449
 30
0.0
 10
31.45891
 20
-8.03757
 30
0.0
 10
31.44938
 20
-8.00958
 30
0.0
 10
31.43092
 20
-7.99112
 30
0.0
 10
31.43092
 20
-7.99112
 30
0.0
 10
31.41246
 20
-7.97266
 30
0.0
 10
31.37971
 20
-7.96313
 30
0.0
 10
31.33326
 20
-7.96313
 30
0.0
 10
31.33326
 20
-7.96313
 30
0.0
 10
31.33326
 20
-7.96313
 30
0.0
 10
31.2493
 20
-7.96313
 30
0.0
 10
31.2493
 20
-7.96313
 30
0.0
 10
31.2493
 20
-7.96313
 30
0.0
 10
31.2493
 20
-7.96313
 30
0.0
 10
31.2493
 20
-7.87917
 30
0.0
 10
31.2493
 20
-7.87917
 30
0.0
 10
31.2493
 20
-7.87917
 30
0.0
 10
31.2493
 20
-7.87917
 30
0.0
 10
31.75249
 20
-7.87917
 30
0.0
 10
31.75249
 20
-7.87917
 30
0.0
 10
31.75249
 20
-7.87917
 30
0.0
 10
31.75249
 20
-7.87917
 30
0.0
 10
31.75249
 20
-7.96313
 30
0.0
 10
31.75249
 20
-7.96313
 30
0.0
 10
31.75249
 20
-7.96313
 30
0.0
 10
31.75249
 20
-7.96313
 30
0.0
 10
31.66852
 20
-7.96313
 30
0.0
 10
31.66852
 20
-7.96313
 30
0.0
 10
31.66852
 20
-7.96313
 30
0.0
 10
31.6316
 20
-7.96313
 30
0.0
 10
31.60123
 20
-7.97266
 30
0.0
 10
31.57801
 20
-7.99112
 30
0.0
 10
31.57801
 20
-7.99112
 30
0.0
 10
31.55478
 20
-8.00958
 30
0.0
 10
31.54287
 20
-8.03757
 30
0.0
 10
31.54287
 20
-8.07449
 30
0.0
 10
31.54287
 20
-8.07449
 30
0.0
 10
31.54287
 20
-8.07449
 30
0.0
 10
31.54287
 20
-9.69362
 30
0.0
 10
31.54287
 20
-9.69362
 30
0.0
 10
31.54287
 20
-9.69362
 30
0.0
 10
31.54287
 20
-9.88001
 30
0.0
 10
31.48035
 20
-10.0265
 30
0.0
 10
31.3547
 20
-10.13309
 30
0.0
 10
31.3547
 20
-10.13309
 30
0.0
 10
31.22905
 20
-10.24028
 30
0.0
 10
31.08673
 20
-10.29387
 30
0.0
 10
30.92893
 20
-10.29387
 30
0.0
 10
30.92893
 20
-10.29387
 30
0.0
 10
30.761
 20
-10.29387
 30
0.0
 10
30.61451
 20
-10.24742
 30
0.0
 10
30.48886
 20
-10.15453
 30
0.0
 10
30.48886
 20
-10.15453
 30
0.0
 10
30.36321
 20
-10.06104
 30
0.0
 10
30.30069
 20
-9.91216
 30
0.0
 10
30.30069
 20
-9.70791
 30
0.0
 10
30.30069
 20
-9.70791
 30
0.0
 10
30.30069
 20
-9.70791
 30
0.0
 10
30.30069
 20
-8.07449
 30
0.0
 10
30.30069
 20
-8.07449
 30
0.0
 10
30.30069
 20
-8.07449
 30
0.0
 10
30.30069
 20
-8.03757
 30
0.0
 10
30.29116
 20
-8.00958
 30
0.0
 10
30.2727
 20
-7.99112
 30
0.0
 10
30.2727
 20
-7.99112
 30
0.0
 10
30.25424
 20
-7.97266
 30
0.0
 10
30.22149
 20
-7.96313
 30
0.0
 10
30.17504
 20
-7.96313
 30
0.0
 10
30.17504
 20
-7.96313
 30
0.0
 10
30.17504
 20
-7.96313
 30
0.0
 10
30.10537
 20
-7.96313
 30
0.0
 10
30.10537
 20
-7.96313
 30
0.0
 10
30.10537
 20
-7.96313
 30
0.0
 10
30.10537
 20
-7.96313
 30
0.0
 10
30.10537
 20
-7.87917
 30
0.0
 10
30.10537
 20
-7.87917
 30
0.0
 10
30.10537
 20
-7.87917
 30
0.0
 10
30.10537
 20
-7.87917
 30
0.0
 10
30.71931
 20
-7.87917
 30
0.0
 10
30.71931
 20
-7.87917
 30
0.0
 10
30.71931
 20
-7.87917
 30
0.0
 10
30.71931
 20
-7.87917
 30
0.0
 10
30.71931
 20
-7.96313
 30
0.0
 10
30.71931
 20
-7.96313
 30
0.0
 10
30.71931
 20
-7.96313
 30
0.0
 10
30.71931
 20
-7.96313
 30
0.0
 10
30.64964
 20
-7.96313
 30
0.0
 10
30.64964
 20
-7.96313
 30
0.0
 10
30.64964
 20
-7.96313
 30
0.0
 10
30.61213
 20
-7.96313
 30
0.0
 10
30.58235
 20
-7.97266
 30
0.0
 10
30.55913
 20
-7.99112
 30
0.0
 10
30.55913
 20
-7.99112
 30
0.0
 10
30.5359
 20
-8.00958
 30
0.0
 10
30.52399
 20
-8.03757
 30
0.0
 10
30.52399
 20
-8.07449
 30
0.0
 10
30.52399
 20
-8.07449
 30
0.0
 10
30.52399
 20
-8.07449
 30
0.0
 10
30.52399
 20
-9.70732
 30
0.0
 10
30.52399
 20
-9.70732
 30
0.0
 10
30.52399
 20
-9.70732
 30
0.0
 10
30.52399
 20
-9.8937
 30
0.0
 10
30.5633
 20
-10.01935
 30
0.0
 10
30.6425
 20
-10.08426
 30
0.0
 10
30.6425
 20
-10.08426
 30
0.0
 10
30.7217
 20
-10.14917
 30
0.0
 10
30.8265
 20
-10.18192
 30
0.0
 10
30.95632
 20
-10.18192
 30
0.0
  0
SPLINE
  5
70
330
1F
100
AcDbEntity
  8
layer 1
 62
   250
100
AcDbSpline
210
0.0
220
0.0
230
1.0
 70
    11
 71
     3
 72
   100
 73
    96
 74
     0
 42
0.0000000001
 43
0.0000000001
 40
0.0
 40
0.0
 40
0.0
 40
0.0
 40
0.0416666666666667
 40
0.0416666666666667
 40
0.0416666666666667
 40
0.0416666666666667
 40
0.0833333333333333
 40
0.0833333333333333
 40
0.0833333333333333
 40
0.0833333333333333
 40
0.125
 40
0.125
 40
0.125
 40
0.125
 40
0.1666666666666667
 40
0.1666666666666667
 40
0.1666666666666667
 40
0.1666666666666667
 40
0.2083333333333333
 40
0.2083333333333333
 40
0.2083333333333333
 40
0.2083333333333333
 40
0.25
 40
0.25
 40
0.25
 40
0.25
 40
0.2916666666666666
 40
0.2916666666666666
 40
0.2916666666666666
 40
0.2916666666666666
 40
0.3333333333333333
 40
0.3333333333333333
 40
0.3333333333333333
 40
0.3333333333333333
 40
0.375
 40
0.375
 40
0.375
 40
0.375
 40
0.4166666666666667
 40
0.4166666666666667
 40
0.4166666666666667
 40
0.4166666666666667
 40
0.4583333333333334
 40
0.4583333333333334
 40
0.4583333333333334
 40
0.4583333333333334
 40
0.5
 40
0.5
 40
0.5
 40
0.5
 40
0.5416666666666666
 40
0.5416666666666666
 40
0.5416666666666666
 40
0.5416666666666666
 40
0.5833333333333333
 40
0.5833333333333333
 40
0.5833333333333333
 40
0.5833333333333333
 40
0.6249999999999999
 40
0.6249999999999999
 40
0.6249999999999999
 40
0.6249999999999999
 40
0.6666666666666665
 40
0.6666666666666665
 40
0.6666666666666665
 40
0.6666666666666665
 40
0.7083333333333331
 40
0.7083333333333331
 40
0.7083333333333331
 40
0.7083333333333331
 40
0.7499999999999998
 40
0.7499999999999998
 40
0.7499999999999998
 40
0.7499999999999998
 40
0.7916666666666664
 40
0.7916666666666664
 40
0.7916666666666664
 40
0.7916666666666664
 40
0.833333333333333
 40
0.833333333333333
 40
0.833333333333333
 40
0.833333333333333
 40
0.8749999999999997
 40
0.8749999999999997
 40
0.8749999999999997
 40
0.8749999999999997
 40
0.9166666666666663
 40
0.9166666666666663
 40
0.9166666666666663
 40
0.9166666666666663
 40
0.9583333333333329
 40
0.9583333333333329
 40
0.9583333333333329
 40
0.9583333333333329
 40
1.0
 40
1.0
 40
1.0
 40
1.0
 10
33.43534
 20
-10.26588
 30
0.0
 10
33.43534
 20
-10.26588
 30
0.0
 10
32.70944
 20
-10.26588
 30
0.0
 10
32.70944
 20
-10.26588
 30
0.0
 10
32.70944
 20
-10.26588
 30
0.0
 10
32.70944
 20
-10.26588
 30
0.0
 10
32.70944
 20
-10.18192
 30
0.0
 10
32.70944
 20
-10.18192
 30
0.0
 10
32.70944
 20
-10.18192
 30
0.0
 10
32.70944
 20
-10.18192
 30
0.0
 10
32.83509
 20
-10.18192
 30
0.0
 10
32.83509
 20
-10.18192
 30
0.0
 10
32.83509
 20
-10.18192
 30
0.0
 10
32.88153
 20
-10.18192
 30
0.0
 10
32.91429
 20
-10.17239
 30
0.0
 10
32.93275
 20
-10.15393
 30
0.0
 10
32.93275
 20
-10.15393
 30
0.0
 10
32.95121
 20
-10.13547
 30
0.0
 10
32.96073
 20
-10.10748
 30
0.0
 10
32.96073
 20
-10.06997
 30
0.0
 10
32.96073
 20
-10.06997
 30
0.0
 10
32.96073
 20
-10.06997
 30
0.0
 10
32.96073
 20
-8.11617
 30
0.0
 10
32.96073
 20
-8.11617
 30
0.0
 10
32.96073
 20
-8.11617
 30
0.0
 10
32.96073
 20
-8.04174
 30
0.0
 10
32.95597
 20
-8.00005
 30
0.0
 10
32.94704
 20
-7.99052
 30
0.0
 10
32.94704
 20
-7.99052
 30
0.0
 10
32.93751
 20
-7.98159
 30
0.0
 10
32.89999
 20
-7.97683
 30
0.0
 10
32.83509
 20
-7.97683
 30
0.0
 10
32.83509
 20
-7.97683
 30
0.0
 10
32.70467
 20
-7.97683
 30
0.0
 10
32.61416
 20
-8.00005
 30
0.0
 10
32.56295
 20
-8.0465
 30
0.0
 10
32.56295
 20
-8.0465
 30
0.0
 10
32.51174
 20
-8.09295
 30
0.0
 10
32.44921
 20
-8.2186
 30
0.0
 10
32.37477
 20
-8.42344
 30
0.0
 10
32.37477
 20
-8.42344
 30
0.0
 10
32.37477
 20
-8.42344
 30
0.0
 10
32.29081
 20
-8.40975
 30
0.0
 10
32.29081
 20
-8.40975
 30
0.0
 10
32.29081
 20
-8.40975
 30
0.0
 10
32.29081
 20
-8.40975
 30
0.0
 10
32.41646
 20
-7.87917
 30
0.0
 10
32.41646
 20
-7.87917
 30
0.0
 10
32.41646
 20
-7.87917
 30
0.0
 10
32.41646
 20
-7.87917
 30
0.0
 10
33.74261
 20
-7.87917
 30
0.0
 10
33.74261
 20
-7.87917
 30
0.0
 10
33.74261
 20
-7.87917
 30
0.0
 10
33.74261
 20
-7.87917
 30
0.0
 10
33.85397
 20
-8.40975
 30
0.0
 10
33.85397
 20
-8.40975
 30
0.0
 10
33.85397
 20
-8.40975
 30
0.0
 10
33.85397
 20
-8.40975
 30
0.0
 10
33.78429
 20
-8.42344
 30
0.0
 10
33.78429
 20
-8.42344
 30
0.0
 10
33.78429
 20
-8.42344
 30
0.0
 10
33.70986
 20
-8.22812
 30
0.0
 10
33.6515
 20
-8.10486
 30
0.0
 10
33.60982
 20
-8.05364
 30
0.0
 10
33.60982
 20
-8.05364
 30
0.0
 10
33.56813
 20
-8.00243
 30
0.0
 10
33.48179
 20
-7.97683
 30
0.0
 10
33.35137
 20
-7.97683
 30
0.0
 10
33.35137
 20
-7.97683
 30
0.0
 10
33.25848
 20
-7.97683
 30
0.0
 10
33.20727
 20
-7.98159
 30
0.0
 10
33.19774
 20
-7.99052
 30
0.0
 10
33.19774
 20
-7.99052
 30
0.0
 10
33.18881
 20
-8.00005
 30
0.0
 10
33.18404
 20
-8.0465
 30
0.0
 10
33.18404
 20
-8.13046
 30
0.0
 10
33.18404
 20
-8.13046
 30
0.0
 10
33.18404
 20
-8.13046
 30
0.0
 10
33.18404
 20
-10.06997
 30
0.0
 10
33.18404
 20
-10.06997
 30
0.0
 10
33.18404
 20
-10.06997
 30
0.0
 10
33.18404
 20
-10.10748
 30
0.0
 10
33.19595
 20
-10.13547
 30
0.0
 10
33.21918
 20
-10.15393
 30
0.0
 10
33.21918
 20
-10.15393
 30
0.0
 10
33.2424
 20
-10.17239
 30
0.0
 10
33.27217
 20
-10.18192
 30
0.0
 10
33.30969
 20
-10.18192
 30
0.0
 10
33.30969
 20
-10.18192
 30
0.0
 10
33.30969
 20
-10.18192
 30
0.0
 10
33.43534
 20
-10.18192
 30
0.0
 10
33.43534
 20
-10.18192
 30
0.0
 10
33.43534
 20
-10.18192
 30
0.0
 10
33.43534
 20
-10.18192
 30
0.0
 10
33.43534
 20
-10.26588
 30
0.0
 10
33.43534
 20
-10.26588
 30
0.0
  0
SPLINE
  5
71
330
1F
100
AcDbEntity
  8
layer 1
 62
   250
100
AcDbSpline
210
0.0
220
0.0
230
1.0
 70
    11
 71
     3
 72
   132
 73
   128
 74
     0
 42
0.0000000001
 43
0.0000000001
 40
0.0
 40
0.0
 40
0.0
 40
0.0
 40
0.03125
 40
0.03125
 40
0.03125
 40
0.03125
 40
0.0625
 40
0.0625
 40
0.0625
 40
0.0625
 40
0.09375
 40
0.09375
 40
0.09375
 40
0.09375
 40
0.125
 40
0.125
 40
0.125
 40
0.125
 40
0.15625
 40
0.15625
 40
0.15625
 40
0.15625
 40
0.1875
 40
0.1875
 40
0.1875
 40
0.1875
 40
0.21875
 40
0.21875
 40
0.21875
 40
0.21875
 40
0.25
 40
0.25
 40
0.25
 40
0.25
 40
0.28125
 40
0.28125
 40
0.28125
 40
0.28125
 40
0.3125
 40
0.3125
 40
0.3125
 40
0.3125
 40
0.34375
 40
0.34375
 40
0.34375
 40
0.34375
 40
0.375
 40
0.375
 40
0.375
 40
0.375
 40
0.40625
 40
0.40625
 40
0.40625
 40
0.40625
 40
0.4375
 40
0.4375
 40
0.4375
 40
0.4375
 40
0.46875
 40
0.46875
 40
0.46875
 40
0.46875
 40
0.5
 40
0.5
 40
0.5
 40
0.5
 40
0.53125
 40
0.53125
 40
0.53125
 40
0.53125
 40
0.5625
 40
0.5625
 40
0.5625
 40
0.5625
 40
0.59375
 40
0.59375
 40
0.59375
 40
0.59375
 40
0.625
 40
0.625
 40
0.625
 40
0.625
 40
0.65625
 40
0.65625
 40
0.65625
 40
0.65625
 40
0.6875
 40
0.6875
 40
0.6875
 40
0.6875
 40
0.71875
 40
0.71875
 40
0.71875
 40
0.71875
 40
0.75
 40
0.75
 40
0.75
 40
0.75
 40
0.78125
 40
0.78125
 40
0.78125
 40
0.78125
 40
0.8125
 40
0.8125
 40
0.8125
 40
0.8125
 40
0.84375
 40
0.84375
 40
0.84375
 40
0.84375
 40
0.875
 40
0.875
 40
0.875
 40
0.875
 40
0.90625
 40
0.90625
 40
0.90625
 40
0.90625
 40
0.9375
 40
0.9375
 40
0.9375
 40
0.9375
 40
0.96875
 40
0.96875
 40
0.96875
 40
0.96875
 40
1.0
 40
1.0
 40
1.0
 40
1.0
 10
36.60394
 20
-9.12136
 30
0.0
 10
36.35265
 20
-9.01
 30
0.0
 10
36.18055
 20
-8.91174
 30
0.0
 10
36.08706
 20
-8.82838
 30
0.0
 10
36.08706
 20
-8.82838
 30
0.0
 10
35.99416
 20
-8.74441
 30
0.0
 10
35.94771
 20
-8.614
 30
0.0
 10
35.94771
 20
-8.43714
 30
0.0
 10
35.94771
 20
-8.43714
 30
0.0
 10
35.94771
 20
-8.2978
 30
0.0
 10
36.00607
 20
-8.165
 30
0.0
 10
36.12219
 20
-8.03935
 30
0.0
 10
36.12219
 20
-8.03935
 30
0.0
 10
36.23831
 20
-7.91371
 30
0.0
 10
36.40386
 20
-7.85118
 30
0.0
 10
36.61764
 20
-7.85118
 30
0.0
 10
36.61764
 20
-7.85118
 30
0.0
 10
36.71053
 20
-7.85118
 30
0.0
 10
36.79926
 20
-7.86726
 30
0.0
 10
36.88263
 20
-7.90001
 30
0.0
 10
36.88263
 20
-7.90001
 30
0.0
 10
36.96659
 20
-7.93276
 30
0.0
 10
37.02733
 20
-7.94884
 30
0.0
 10
37.06425
 20
-7.94884
 30
0.0
 10
37.06425
 20
-7.94884
 30
0.0
 10
37.09224
 20
-7.94884
 30
0.0
 10
37.11785
 20
-7.94169
 30
0.0
 10
37.14107
 20
-7.928
 30
0.0
 10
37.14107
 20
-7.928
 30
0.0
 10
37.1643
 20
-7.91371
 30
0.0
 10
37.18514
 20
-7.8881
 30
0.0
 10
37.20419
 20
-7.85118
 30
0.0
 10
37.20419
 20
-7.85118
 30
0.0
 10
37.20419
 20
-7.85118
 30
0.0
 10
37.25957
 20
-8.42344
 30
0.0
 10
37.25957
 20
-8.42344
 30
0.0
 10
37.25957
 20
-8.42344
 30
0.0
 10
37.25957
 20
-8.42344
 30
0.0
 10
37.1899
 20
-8.45143
 30
0.0
 10
37.1899
 20
-8.45143
 30
0.0
 10
37.1899
 20
-8.45143
 30
0.0
 10
37.10594
 20
-8.25611
 30
0.0
 10
37.02019
 20
-8.12332
 30
0.0
 10
36.93146
 20
-8.05364
 30
0.0
 10
36.93146
 20
-8.05364
 30
0.0
 10
36.84333
 20
-7.98397
 30
0.0
 10
36.72959
 20
-7.94884
 30
0.0
 10
36.58965
 20
-7.94884
 30
0.0
 10
36.58965
 20
-7.94884
 30
0.0
 10
36.41279
 20
-7.94884
 30
0.0
 10
36.29191
 20
-7.99767
 30
0.0
 10
36.227
 20
-8.09533
 30
0.0
 10
36.227
 20
-8.09533
 30
0.0
 10
36.16209
 20
-8.19299
 30
0.0
 10
36.12934
 20
-8.2978
 30
0.0
 10
36.12934
 20
-8.40975
 30
0.0
 10
36.12934
 20
-8.40975
 30
0.0
 10
36.12934
 20
-8.51158
 30
0.0
 10
36.15971
 20
-8.59316
 30
0.0
 10
36.21985
 20
-8.6539
 30
0.0
 10
36.21985
 20
-8.6539
 30
0.0
 10
36.28059
 20
-8.71404
 30
0.0
 10
36.44554
 20
-8.80515
 30
0.0
 10
36.7153
 20
-8.92604
 30
0.0
 10
36.7153
 20
-8.92604
 30
0.0
 10
36.93861
 20
-9.01893
 30
0.0
 10
37.09939
 20
-9.12374
 30
0.0
 10
37.19705
 20
-9.23986
 30
0.0
 10
37.19705
 20
-9.23986
 30
0.0
 10
37.29471
 20
-9.35657
 30
0.0
 10
37.34354
 20
-9.49354
 30
0.0
 10
37.34354
 20
-9.65194
 30
0.0
 10
37.34354
 20
-9.65194
 30
0.0
 10
37.34354
 20
-9.81927
 30
0.0
 10
37.28518
 20
-9.96814
 30
0.0
 10
37.16906
 20
-10.09855
 30
0.0
 10
37.16906
 20
-10.09855
 30
0.0
 10
37.05294
 20
-10.22896
 30
0.0
 10
36.88263
 20
-10.29387
 30
0.0
 10
36.65932
 20
-10.29387
 30
0.0
 10
36.65932
 20
-10.29387
 30
0.0
 10
36.56643
 20
-10.29387
 30
0.0
 10
36.48068
 20
-10.27779
 30
0.0
 10
36.40148
 20
-10.24504
 30
0.0
 10
36.40148
 20
-10.24504
 30
0.0
 10
36.32228
 20
-10.21229
 30
0.0
 10
36.25915
 20
-10.19621
 30
0.0
 10
36.21271
 20
-10.19621
 30
0.0
 10
36.21271
 20
-10.19621
 30
0.0
 10
36.18472
 20
-10.19621
 30
0.0
 10
36.15673
 20
-10.20574
 30
0.0
 10
36.12934
 20
-10.2242
 30
0.0
 10
36.12934
 20
-10.2242
 30
0.0
 10
36.10135
 20
-10.24266
 30
0.0
 10
36.0686
 20
-10.26588
 30
0.0
 10
36.03168
 20
-10.29387
 30
0.0
 10
36.03168
 20
-10.29387
 30
0.0
 10
36.03168
 20
-10.29387
 30
0.0
 10
35.91973
 20
-9.61025
 30
0.0
 10
35.91973
 20
-9.61025
 30
0.0
 10
35.91973
 20
-9.61025
 30
0.0
 10
35.91973
 20
-9.61025
 30
0.0
 10
36.00369
 20
-9.58226
 30
0.0
 10
36.00369
 20
-9.58226
 30
0.0
 10
36.00369
 20
-9.58226
 30
0.0
 10
36.0686
 20
-9.8151
 30
0.0
 10
36.15911
 20
-9.97529
 30
0.0
 10
36.27583
 20
-10.06342
 30
0.0
 10
36.27583
 20
-10.06342
 30
0.0
 10
36.39195
 20
-10.15215
 30
0.0
 10
36.52474
 20
-10.19621
 30
0.0
 10
36.67361
 20
-10.19621
 30
0.0
 10
36.67361
 20
-10.19621
 30
0.0
 10
36.83201
 20
-10.19621
 30
0.0
 10
36.95052
 20
-10.14976
 30
0.0
 10
37.02972
 20
-10.05687
 30
0.0
 10
37.02972
 20
-10.05687
 30
0.0
 10
37.10892
 20
-9.96338
 30
0.0
 10
37.14822
 20
-9.8288
 30
0.0
 10
37.14822
 20
-9.65194
 30
0.0
 10
37.14822
 20
-9.65194
 30
0.0
 10
37.14822
 20
-9.55904
 30
0.0
 10
37.10415
 20
-9.46793
 30
0.0
 10
37.01542
 20
-9.3798
 30
0.0
 10
37.01542
 20
-9.3798
 30
0.0
 10
36.92729
 20
-9.29107
 30
0.0
 10
36.78973
 20
-9.20532
 30
0.0
 10
36.60394
 20
-9.12136
 30
0.0
  0
SPLINE
  5
72
330
1F
100
AcDbEntity
  8
layer 1
 62
   250
100
AcDbSpline
210
0.0
220
0.0
230
1.0
 70
    11
 71
     3
 72
    84
 73
    80
 74
     0
 42
0.0000000001
 43
0.0000000001
 40
0.0
 40
0.0
 40
0.0
 40
0.0
 40
0.05
 40
0.05
 40
0.05
 40
0.05
 40
0.1
 40
0.1
 40
0.1
 40
0.1
 40
0.15
 40
0.15
 40
0.15
 40
0.15
 40
0.2
 40
0.2
 40
0.2
 40
0.2
 40
0.25
 40
0.25
 40
0.25
 40
0.25
 40
0.3
 40
0.3
 40
0.3
 40
0.3
 40
0.35
 40
0.35
 40
0.35
 40
0.35
 40
0.4
 40
0.4
 40
0.4
 40
0.4
 40
0.45
 40
0.45
 40
0.45
 40
0.45
 40
0.4999999999999999
 40
0.4999999999999999
 40
0.4999999999999999
 40
0.4999999999999999
 40
0.5499999999999999
 40
0.5499999999999999
 40
0.5499999999999999
 40
0.5499999999999999
 40
0.6
 40
0.6
 40
0.6
 40
0.6
 40
0.65
 40
0.65
 40
0.65
 40
0.65
 40
0.7000000000000001
 40
0.7000000000000001
 40
0.7000000000000001
 40
0.7000000000000001
 40
0.7500000000000001
 40
0.7500000000000001
 40
0.7500000000000001
 40
0.7500000000000001
 40
0.8000000000000002
 40
0.8000000000000002
 40
0.8000000000000002
 40
0.8000000000000002
 40
0.8500000000000002
 40
0.8500000000000002
 40
0.8500000000000002
 40
0.8500000000000002
 40
0.9000000000000002
 40
0.9000000000000002
 40
0.9000000000000002
 40
0.9000000000000002
 40
0.9500000000000003
 40
0.9500000000000003
 40
0.9500000000000003
 40
0.9500000000000003
 40
1.0
 40
1.0
 40
1.0
 40
1.0
 10
38.24511
 20
-7.96313
 30
0.0
 10
38.24511
 20
-7.96313
 30
0.0
 10
38.24511
 20
-7.87917
 30
0.0
 10
38.24511
 20
-7.87917
 30
0.0
 10
38.24511
 20
-7.87917
 30
0.0
 10
38.24511
 20
-7.87917
 30
0.0
 10
39.36165
 20
-7.87917
 30
0.0
 10
39.36165
 20
-7.87917
 30
0.0
 10
39.36165
 20
-7.87917
 30
0.0
 10
39.36165
 20
-7.87917
 30
0.0
 10
39.36165
 20
-7.96313
 30
0.0
 10
39.36165
 20
-7.96313
 30
0.0
 10
39.36165
 20
-7.96313
 30
0.0
 10
39.36165
 20
-7.96313
 30
0.0
 10
39.04068
 20
-7.96313
 30
0.0
 10
39.04068
 20
-7.96313
 30
0.0
 10
39.04068
 20
-7.96313
 30
0.0
 10
39.00317
 20
-7.96313
 30
0.0
 10
38.97339
 20
-7.97266
 30
0.0
 10
38.95017
 20
-7.99112
 30
0.0
 10
38.95017
 20
-7.99112
 30
0.0
 10
38.92694
 20
-8.00958
 30
0.0
 10
38.91503
 20
-8.03757
 30
0.0
 10
38.91503
 20
-8.07449
 30
0.0
 10
38.91503
 20
-8.07449
 30
0.0
 10
38.91503
 20
-8.07449
 30
0.0
 10
38.91503
 20
-10.07056
 30
0.0
 10
38.91503
 20
-10.07056
 30
0.0
 10
38.91503
 20
-10.07056
 30
0.0
 10
38.91503
 20
-10.10748
 30
0.0
 10
38.92694
 20
-10.13547
 30
0.0
 10
38.95017
 20
-10.15393
 30
0.0
 10
38.95017
 20
-10.15393
 30
0.0
 10
38.97339
 20
-10.17239
 30
0.0
 10
39.00317
 20
-10.18192
 30
0.0
 10
39.04068
 20
-10.18192
 30
0.0
 10
39.04068
 20
-10.18192
 30
0.0
 10
39.04068
 20
-10.18192
 30
0.0
 10
39.36165
 20
-10.18192
 30
0.0
 10
39.36165
 20
-10.18192
 30
0.0
 10
39.36165
 20
-10.18192
 30
0.0
 10
39.36165
 20
-10.18192
 30
0.0
 10
39.36165
 20
-10.26588
 30
0.0
 10
39.36165
 20
-10.26588
 30
0.0
 10
39.36165
 20
-10.26588
 30
0.0
 10
39.36165
 20
-10.26588
 30
0.0
 10
38.24511
 20
-10.26588
 30
0.0
 10
38.24511
 20
-10.26588
 30
0.0
 10
38.24511
 20
-10.26588
 30
0.0
 10
38.24511
 20
-10.26588
 30
0.0
 10
38.24511
 20
-10.18192
 30
0.0
 10
38.24511
 20
-10.18192
 30
0.0
 10
38.24511
 20
-10.18192
 30
0.0
 10
38.24511
 20
-10.18192
 30
0.0
 10
38.56608
 20
-10.18192
 30
0.0
 10
38.56608
 20
-10.18192
 30
0.0
 10
38.56608
 20
-10.18192
 30
0.0
 10
38.61253
 20
-10.18192
 30
0.0
 10
38.64528
 20
-10.17239
 30
0.0
 10
38.66374
 20
-10.15393
 30
0.0
 10
38.66374
 20
-10.15393
 30
0.0
 10
38.6822
 20
-10.13547
 30
0.0
 10
38.69173
 20
-10.10748
 30
0.0
 10
38.69173
 20
-10.07056
 30
0.0
 10
38.69173
 20
-10.07056
 30
0.0
 10
38.69173
 20
-10.07056
 30
0.0
 10
38.69173
 20
-8.07449
 30
0.0
 10
38.69173
 20
-8.07449
 30
0.0
 10
38.69173
 20
-8.07449
 30
0.0
 10
38.69173
 20
-8.03757
 30
0.0
 10
38.6822
 20
-8.00958
 30
0.0
 10
38.66374
 20
-7.99112
 30
0.0
 10
38.66374
 20
-7.99112
 30
0.0
 10
38.64528
 20
-7.97266
 30
0.0
 10
38.61253
 20
-7.96313
 30
0.0
 10
38.56608
 20
-7.96313
 30
0.0
 10
38.56608
 20
-7.96313
 30
0.0
 10
38.56608
 20
-7.96313
 30
0.0
 10
38.24511
 20
-7.96313
 30
0.0
 10
38.24511
 20
-7.96313
 30
0.0
  0
SPLINE
  5
73
330
1F
100
AcDbEntity
  8
layer 1
 62
   250
100
AcDbSpline
210
0.0
220
0.0
230
1.0
 70
    11
 71
     3
 72
    60
 73
    56
 74
     0
 42
0.0000000001
 43
0.0000000001
 40
0.0
 40
0.0
 40
0.0
 40
0.0
 40
0.0714285714285714
 40
0.0714285714285714
 40
0.0714285714285714
 40
0.0714285714285714
 40
0.1428571428571428
 40
0.1428571428571428
 40
0.1428571428571428
 40
0.1428571428571428
 40
0.2142857142857143
 40
0.2142857142857143
 40
0.2142857142857143
 40
0.2142857142857143
 40
0.2857142857142857
 40
0.2857142857142857
 40
0.2857142857142857
 40
0.2857142857142857
 40
0.3571428571428571
 40
0.3571428571428571
 40
0.3571428571428571
 40
0.3571428571428571
 40
0.4285714285714285
 40
0.4285714285714285
 40
0.4285714285714285
 40
0.4285714285714285
 40
0.4999999999999999
 40
0.4999999999999999
 40
0.4999999999999999
 40
0.4999999999999999
 40
0.5714285714285713
 40
0.5714285714285713
 40
0.5714285714285713
 40
0.5714285714285713
 40
0.6428571428571427
 40
0.6428571428571427
 40
0.6428571428571427
 40
0.6428571428571427
 40
0.7142857142857141
 40
0.7142857142857141
 40
0.7142857142857141
 40
0.7142857142857141
 40
0.7857142857142855
 40
0.7857142857142855
 40
0.7857142857142855
 40
0.7857142857142855
 40
0.8571428571428569
 40
0.8571428571428569
 40
0.8571428571428569
 40
0.8571428571428569
 40
0.9285714285714283
 40
0.9285714285714283
 40
0.9285714285714283
 40
0.9285714285714283
 40
1.0
 40
1.0
 40
1.0
 40
1.0
 10
41.05879
 20
-10.18192
 30
0.0
 10
41.17968
 20
-10.18192
 30
0.0
 10
41.28448
 20
-10.14262
 30
0.0
 10
41.37262
 20
-10.06342
 30
0.0
 10
41.37262
 20
-10.06342
 30
0.0
 10
41.46075
 20
-9.98422
 30
0.0
 10
41.5334
 20
-9.86572
 30
0.0
 10
41.58878
 20
-9.70732
 30
0.0
 10
41.58878
 20
-9.70732
 30
0.0
 10
41.58878
 20
-9.70732
 30
0.0
 10
41.67274
 20
-9.72101
 30
0.0
 10
41.67274
 20
-9.72101
 30
0.0
 10
41.67274
 20
-9.72101
 30
0.0
 10
41.67274
 20
-9.72101
 30
0.0
 10
41.51911
 20
-10.26588
 30
0.0
 10
41.51911
 20
-10.26588
 30
0.0
 10
41.51911
 20
-10.26588
 30
0.0
 10
41.51911
 20
-10.26588
 30
0.0
 10
40.17926
 20
-10.26588
 30
0.0
 10
40.17926
 20
-10.26588
 30
0.0
 10
40.17926
 20
-10.26588
 30
0.0
 10
40.17926
 20
-10.26588
 30
0.0
 10
41.40775
 20
-7.96313
 30
0.0
 10
41.40775
 20
-7.96313
 30
0.0
 10
41.40775
 20
-7.96313
 30
0.0
 10
41.40775
 20
-7.96313
 30
0.0
 10
40.91885
 20
-7.96313
 30
0.0
 10
40.91885
 20
-7.96313
 30
0.0
 10
40.91885
 20
-7.96313
 30
0.0
 10
40.79797
 20
-7.96313
 30
0.0
 10
40.6884
 20
-7.99826
 30
0.0
 10
40.59074
 20
-8.06794
 30
0.0
 10
40.59074
 20
-8.06794
 30
0.0
 10
40.49308
 20
-8.13761
 30
0.0
 10
40.40733
 20
-8.24241
 30
0.0
 10
40.33289
 20
-8.38176
 30
0.0
 10
40.33289
 20
-8.38176
 30
0.0
 10
40.33289
 20
-8.38176
 30
0.0
 10
40.24893
 20
-8.35377
 30
0.0
 10
40.24893
 20
-8.35377
 30
0.0
 10
40.24893
 20
-8.35377
 30
0.0
 10
40.24893
 20
-8.35377
 30
0.0
 10
40.41626
 20
-7.87917
 30
0.0
 10
40.41626
 20
-7.87917
 30
0.0
 10
40.41626
 20
-7.87917
 30
0.0
 10
40.41626
 20
-7.87917
 30
0.0
 10
41.68644
 20
-7.87917
 30
0.0
 10
41.68644
 20
-7.87917
 30
0.0
 10
41.68644
 20
-7.87917
 30
0.0
 10
41.68644
 20
-7.87917
 30
0.0
 10
40.45795
 20
-10.18192
 30
0.0
 10
40.45795
 20
-10.18192
 30
0.0
 10
40.45795
 20
-10.18192
 30
0.0
 10
40.45795
 20
-10.18192
 30
0.0
 10
41.05879
 20
-10.18192
 30
0.0
 10
41.05879
 20
-10.18192
 30
0.0
  0
SPLINE
  5
74
330
1F
100
AcDbEntity
  8
layer 1
 62
   250
100
AcDbSpline
210
0.0
220
0.0
230
1.0
 70
    11
 71
     3
 72
   156
 73
   152
 74
     0
 42
0.0000000001
 43
0.0000000001
 40
0.0
 40
0.0
 40
0.0
 40
0.0
 40
0.0263157894736842
 40
0.0263157894736842
 40
0.0263157894736842
 40
0.0263157894736842
 40
0.0526315789473684
 40
0.0526315789473684
 40
0.0526315789473684
 40
0.0526315789473684
 40
0.0789473684210526
 40
0.0789473684210526
 40
0.0789473684210526
 40
0.0789473684210526
 40
0.1052631578947368
 40
0.1052631578947368
 40
0.1052631578947368
 40
0.1052631578947368
 40
0.131578947368421
 40
0.131578947368421
 40
0.131578947368421
 40
0.131578947368421
 40
0.1578947368421053
 40
0.1578947368421053
 40
0.1578947368421053
 40
0.1578947368421053
 40
0.1842105263157895
 40
0.1842105263157895
 40
0.1842105263157895
 40
0.1842105263157895
 40
0.2105263157894737
 40
0.2105263157894737
 40
0.2105263157894737
 40
0.2105263157894737
 40
0.2368421052631579
 40
0.2368421052631579
 40
0.2368421052631579
 40
0.2368421052631579
 40
0.2631578947368421
 40
0.2631578947368421
 40
0.2631578947368421
 40
0.2631578947368421
 40
0.2894736842105263
 40
0.2894736842105263
 40
0.2894736842105263
 40
0.2894736842105263
 40
0.3157894736842105
 40
0.3157894736842105
 40
0.3157894736842105
 40
0.3157894736842105
 40
0.3421052631578947
 40
0.3421052631578947
 40
0.3421052631578947
 40
0.3421052631578947
 40
0.3684210526315789
 40
0.3684210526315789
 40
0.3684210526315789
 40
0.3684210526315789
 40
0.3947368421052631
 40
0.3947368421052631
 40
0.3947368421052631
 40
0.3947368421052631
 40
0.4210526315789472
 40
0.4210526315789472
 40
0.4210526315789472
 40
0.4210526315789472
 40
0.4473684210526314
 40
0.4473684210526314
 40
0.4473684210526314
 40
0.4473684210526314
 40
0.4736842105263156
 40
0.4736842105263156
 40
0.4736842105263156
 40
0.4736842105263156
 40
0.4999999999999998
 40
0.4999999999999998
 40
0.4999999999999998
 40
0.4999999999999998
 40
0.526315789473684
 40
0.526315789473684
 40
0.526315789473684
 40
0.526315789473684
 40
0.5526315789473681
 40
0.5526315789473681
 40
0.5526315789473681
 40
0.5526315789473681
 40
0.5789473684210523
 40
0.5789473684210523
 40
0.5789473684210523
 40
0.5789473684210523
 40
0.6052631578947365
 40
0.6052631578947365
 40
0.6052631578947365
 40
0.6052631578947365
 40
0.6315789473684207
 40
0.6315789473684207
 40
0.6315789473684207
 40
0.6315789473684207
 40
0.6578947368421049
 40
0.6578947368421049
 40
0.6578947368421049
 40
0.6578947368421049
 40
0.684210526315789
 40
0.684210526315789
 40
0.684210526315789
 40
0.684210526315789
 40
0.7105263157894732
 40
0.7105263157894732
 40
0.7105263157894732
 40
0.7105263157894732
 40
0.7368421052631574
 40
0.7368421052631574
 40
0.7368421052631574
 40
0.7368421052631574
 40
0.7631578947368416
 40
0.7631578947368416
 40
0.7631578947368416
 40
0.7631578947368416
 40
0.7894736842105258
 40
0.7894736842105258
 40
0.7894736842105258
 40
0.7894736842105258
 40
0.81578947368421
 40
0.81578947368421
 40
0.81578947368421
 40
0.81578947368421
 40
0.8421052631578941
 40
0.8421052631578941
 40
0.8421052631578941
 40
0.8421052631578941
 40
0.8684210526315783
 40
0.8684210526315783
 40
0.8684210526315783
 40
0.8684210526315783
 40
0.8947368421052625
 40
0.8947368421052625
 40
0.8947368421052625
 40
0.8947368421052625
 40
0.9210526315789467
 40
0.9210526315789467
 40
0.9210526315789467
 40
0.9210526315789467
 40
0.9473684210526309
 40
0.9473684210526309
 40
0.9473684210526309
 40
0.9473684210526309
 40
0.973684210526315
 40
0.973684210526315
 40
0.973684210526315
 40
0.973684210526315
 40
1.0
 40
1.0
 40
1.0
 40
1.0
 10
42.29503
 20
-7.96313
 30
0.0
 10
42.29503
 20
-7.96313
 30
0.0
 10
42.29503
 20
-7.87917
 30
0.0
 10
42.29503
 20
-7.87917
 30
0.0
 10
42.29503
 20
-7.87917
 30
0.0
 10
42.29503
 20
-7.87917
 30
0.0
 10
43.67597
 20
-7.87917
 30
0.0
 10
43.67597
 20
-7.87917
 30
0.0
 10
43.67597
 20
-7.87917
 30
0.0
 10
43.67597
 20
-7.87917
 30
0.0
 10
43.83079
 20
-8.35377
 30
0.0
 10
43.83079
 20
-8.35377
 30
0.0
 10
43.83079
 20
-8.35377
 30
0.0
 10
43.83079
 20
-8.35377
 30
0.0
 10
43.76112
 20
-8.38176
 30
0.0
 10
43.76112
 20
-8.38176
 30
0.0
 10
43.76112
 20
-8.38176
 30
0.0
 10
43.68669
 20
-8.24241
 30
0.0
 10
43.60749
 20
-8.13761
 30
0.0
 10
43.52352
 20
-8.06794
 30
0.0
 10
43.52352
 20
-8.06794
 30
0.0
 10
43.44015
 20
-7.99826
 30
0.0
 10
43.34666
 20
-7.96313
 30
0.0
 10
43.24424
 20
-7.96313
 30
0.0
 10
43.24424
 20
-7.96313
 30
0.0
 10
43.24424
 20
-7.96313
 30
0.0
 10
42.8536
 20
-7.96313
 30
0.0
 10
42.8536
 20
-7.96313
 30
0.0
 10
42.8536
 20
-7.96313
 30
0.0
 10
42.81608
 20
-7.96313
 30
0.0
 10
42.78631
 20
-7.97266
 30
0.0
 10
42.76308
 20
-7.99112
 30
0.0
 10
42.76308
 20
-7.99112
 30
0.0
 10
42.73986
 20
-8.00958
 30
0.0
 10
42.72795
 20
-8.03757
 30
0.0
 10
42.72795
 20
-8.07449
 30
0.0
 10
42.72795
 20
-8.07449
 30
0.0
 10
42.72795
 20
-8.07449
 30
0.0
 10
42.72795
 20
-8.93973
 30
0.0
 10
42.72795
 20
-8.93973
 30
0.0
 10
42.72795
 20
-8.93973
 30
0.0
 10
42.72795
 20
-8.93973
 30
0.0
 10
43.13288
 20
-8.93973
 30
0.0
 10
43.13288
 20
-8.93973
 30
0.0
 10
43.13288
 20
-8.93973
 30
0.0
 10
43.22578
 20
-8.93973
 30
0.0
 10
43.29307
 20
-8.91651
 30
0.0
 10
43.33535
 20
-8.87006
 30
0.0
 10
43.33535
 20
-8.87006
 30
0.0
 10
43.37703
 20
-8.82361
 30
0.0
 10
43.39787
 20
-8.75394
 30
0.0
 10
43.39787
 20
-8.66104
 30
0.0
 10
43.39787
 20
-8.66104
 30
0.0
 10
43.39787
 20
-8.66104
 30
0.0
 10
43.39787
 20
-8.57708
 30
0.0
 10
43.39787
 20
-8.57708
 30
0.0
 10
43.39787
 20
-8.57708
 30
0.0
 10
43.39787
 20
-8.57708
 30
0.0
 10
43.48184
 20
-8.57708
 30
0.0
 10
43.48184
 20
-8.57708
 30
0.0
 10
43.48184
 20
-8.57708
 30
0.0
 10
43.48184
 20
-8.57708
 30
0.0
 10
43.48184
 20
-9.40064
 30
0.0
 10
43.48184
 20
-9.40064
 30
0.0
 10
43.48184
 20
-9.40064
 30
0.0
 10
43.48184
 20
-9.40064
 30
0.0
 10
43.39787
 20
-9.40064
 30
0.0
 10
43.39787
 20
-9.40064
 30
0.0
 10
43.39787
 20
-9.40064
 30
0.0
 10
43.39787
 20
-9.40064
 30
0.0
 10
43.39787
 20
-9.34466
 30
0.0
 10
43.39787
 20
-9.34466
 30
0.0
 10
43.39787
 20
-9.34466
 30
0.0
 10
43.39787
 20
-9.24224
 30
0.0
 10
43.37703
 20
-9.16304
 30
0.0
 10
43.33535
 20
-9.10766
 30
0.0
 10
43.33535
 20
-9.10766
 30
0.0
 10
43.29307
 20
-9.05168
 30
0.0
 10
43.22578
 20
-9.0237
 30
0.0
 10
43.13288
 20
-9.0237
 30
0.0
 10
43.13288
 20
-9.0237
 30
0.0
 10
43.13288
 20
-9.0237
 30
0.0
 10
42.72795
 20
-9.0237
 30
0.0
 10
42.72795
 20
-9.0237
 30
0.0
 10
42.72795
 20
-9.0237
 30
0.0
 10
42.72795
 20
-9.0237
 30
0.0
 10
42.72795
 20
-10.07056
 30
0.0
 10
42.72795
 20
-10.07056
 30
0.0
 10
42.72795
 20
-10.07056
 30
0.0
 10
42.72795
 20
-10.10748
 30
0.0
 10
42.73986
 20
-10.13547
 30
0.0
 10
42.76308
 20
-10.15393
 30
0.0
 10
42.76308
 20
-10.15393
 30
0.0
 10
42.78631
 20
-10.17239
 30
0.0
 10
42.81608
 20
-10.18192
 30
0.0
 10
42.8536
 20
-10.18192
 30
0.0
 10
42.8536
 20
-10.18192
 30
0.0
 10
42.8536
 20
-10.18192
 30
0.0
 10
43.21625
 20
-10.18192
 30
0.0
 10
43.21625
 20
-10.18192
 30
0.0
 10
43.21625
 20
-10.18192
 30
0.0
 10
43.35619
 20
-10.18192
 30
0.0
 10
43.47469
 20
-10.14262
 30
0.0
 10
43.57235
 20
-10.06342
 30
0.0
 10
43.57235
 20
-10.06342
 30
0.0
 10
43.67001
 20
-9.98422
 30
0.0
 10
43.74683
 20
-9.86095
 30
0.0
 10
43.80281
 20
-9.69362
 30
0.0
 10
43.80281
 20
-9.69362
 30
0.0
 10
43.80281
 20
-9.69362
 30
0.0
 10
43.87248
 20
-9.72161
 30
0.0
 10
43.87248
 20
-9.72161
 30
0.0
 10
43.87248
 20
-9.72161
 30
0.0
 10
43.87248
 20
-9.72161
 30
0.0
 10
43.71884
 20
-10.26588
 30
0.0
 10
43.71884
 20
-10.26588
 30
0.0
 10
43.71884
 20
-10.26588
 30
0.0
 10
43.71884
 20
-10.26588
 30
0.0
 10
42.29503
 20
-10.26588
 30
0.0
 10
42.29503
 20
-10.26588
 30
0.0
 10
42.29503
 20
-10.26588
 30
0.0
 10
42.29503
 20
-10.26588
 30
0.0
 10
42.29503
 20
-10.18192
 30
0.0
 10
42.29503
 20
-10.18192
 30
0.0
 10
42.29503
 20
-10.18192
 30
0.0
 10
42.29503
 20
-10.18192
 30
0.0
 10
42.37899
 20
-10.18192
 30
0.0
 10
42.37899
 20
-10.18192
 30
0.0
 10
42.37899
 20
-10.18192
 30
0.0
 10
42.42544
 20
-10.18192
 30
0.0
 10
42.45819
 20
-10.17239
 30
0.0
 10
42.47665
 20
-10.15393
 30
0.0
 10
42.47665
 20
-10.15393
 30
0.0
 10
42.49511
 20
-10.13547
 30
0.0
 10
42.50464
 20
-10.10748
 30
0.0
 10
42.50464
 20
-10.07056
 30
0.0
 10
42.50464
 20
-10.07056
 30
0.0
 10
42.50464
 20
-10.07056
 30
0.0
 10
42.50464
 20
-8.07449
 30
0.0
 10
42.50464
 20
-8.07449
 30
0.0
 10
42.50464
 20
-8.07449
 30
0.0
 10
42.50464
 20
-8.03757
 30
0.0
 10
42.49452
 20
-8.00958
 30
0.0
 10
42.47487
 20
-7.99112
 30
0.0
 10
42.47487
 20
-7.99112
 30
0.0
 10
42.45462
 20
-7.97266
 30
0.0
 10
42.42008
 20
-7.96313
 30
0.0
 10
42.37006
 20
-7.96313
 30
0.0
 10
42.37006
 20
-7.96313
 30
0.0
 10
42.37006
 20
-7.96313
 30
0.0
 10
42.29503
 20
-7.96313
 30
0.0
 10
42.29503
 20
-7.96313
 30
0.0
  0
SPLINE
  5
75
330
1F
100
AcDbEntity
  8
layer 1
 62
   250
100
AcDbSpline
210
0.0
220
0.0
230
1.0
 70
    11
 71
     3
 72
   168
 73
   164
 74
     0
 42
0.0000000001
 43
0.0000000001
 40
0.0
 40
0.0
 40
0.0
 40
0.0
 40
0.024390243902439
 40
0.024390243902439
 40
0.024390243902439
 40
0.024390243902439
 40
0.0487804878048781
 40
0.0487804878048781
 40
0.0487804878048781
 40
0.0487804878048781
 40
0.0731707317073171
 40
0.0731707317073171
 40
0.0731707317073171
 40
0.0731707317073171
 40
0.0975609756097561
 40
0.0975609756097561
 40
0.0975609756097561
 40
0.0975609756097561
 40
0.1219512195121951
 40
0.1219512195121951
 40
0.1219512195121951
 40
0.1219512195121951
 40
0.1463414634146341
 40
0.1463414634146341
 40
0.1463414634146341
 40
0.1463414634146341
 40
0.1707317073170732
 40
0.1707317073170732
 40
0.1707317073170732
 40
0.1707317073170732
 40
0.1951219512195122
 40
0.1951219512195122
 40
0.1951219512195122
 40
0.1951219512195122
 40
0.2195121951219512
 40
0.2195121951219512
 40
0.2195121951219512
 40
0.2195121951219512
 40
0.2439024390243902
 40
0.2439024390243902
 40
0.2439024390243902
 40
0.2439024390243902
 40
0.2682926829268292
 40
0.2682926829268292
 40
0.2682926829268292
 40
0.2682926829268292
 40
0.2926829268292683
 40
0.2926829268292683
 40
0.2926829268292683
 40
0.2926829268292683
 40
0.3170731707317073
 40
0.3170731707317073
 40
0.3170731707317073
 40
0.3170731707317073
 40
0.3414634146341464
 40
0.3414634146341464
 40
0.3414634146341464
 40
0.3414634146341464
 40
0.3658536585365854
 40
0.3658536585365854
 40
0.3658536585365854
 40
0.3658536585365854
 40
0.3902439024390245
 40
0.3902439024390245
 40
0.3902439024390245
 40
0.3902439024390245
 40
0.4146341463414635
 40
0.4146341463414635
 40
0.4146341463414635
 40
0.4146341463414635
 40
0.4390243902439026
 40
0.4390243902439026
 40
0.4390243902439026
 40
0.4390243902439026
 40
0.4634146341463416
 40
0.4634146341463416
 40
0.4634146341463416
 40
0.4634146341463416
 40
0.4878048780487806
 40
0.4878048780487806
 40
0.4878048780487806
 40
0.4878048780487806
 40
0.5121951219512196
 40
0.5121951219512196
 40
0.5121951219512196
 40
0.5121951219512196
 40
0.5365853658536587
 40
0.5365853658536587
 40
0.5365853658536587
 40
0.5365853658536587
 40
0.5609756097560977
 40
0.5609756097560977
 40
0.5609756097560977
 40
0.5609756097560977
 40
0.5853658536585368
 40
0.5853658536585368
 40
0.5853658536585368
 40
0.5853658536585368
 40
0.6097560975609758
 40
0.6097560975609758
 40
0.6097560975609758
 40
0.6097560975609758
 40
0.6341463414634149
 40
0.6341463414634149
 40
0.6341463414634149
 40
0.6341463414634149
 40
0.6585365853658539
 40
0.6585365853658539
 40
0.6585365853658539
 40
0.6585365853658539
 40
0.682926829268293
 40
0.682926829268293
 40
0.682926829268293
 40
0.682926829268293
 40
0.707317073170732
 40
0.707317073170732
 40
0.707317073170732
 40
0.707317073170732
 40
0.731707317073171
 40
0.731707317073171
 40
0.731707317073171
 40
0.731707317073171
 40
0.7560975609756101
 40
0.7560975609756101
 40
0.7560975609756101
 40
0.7560975609756101
 40
0.7804878048780491
 40
0.7804878048780491
 40
0.7804878048780491
 40
0.7804878048780491
 40
0.8048780487804882
 40
0.8048780487804882
 40
0.8048780487804882
 40
0.8048780487804882
 40
0.8292682926829272
 40
0.8292682926829272
 40
0.8292682926829272
 40
0.8292682926829272
 40
0.8536585365853663
 40
0.8536585365853663
 40
0.8536585365853663
 40
0.8536585365853663
 40
0.8780487804878053
 40
0.8780487804878053
 40
0.8780487804878053
 40
0.8780487804878053
 40
0.9024390243902444
 40
0.9024390243902444
 40
0.9024390243902444
 40
0.9024390243902444
 40
0.9268292682926834
 40
0.9268292682926834
 40
0.9268292682926834
 40
0.9268292682926834
 40
0.9512195121951225
 40
0.9512195121951225
 40
0.9512195121951225
 40
0.9512195121951225
 40
0.9756097560975615
 40
0.9756097560975615
 40
0.9756097560975615
 40
0.9756097560975615
 40
1.0
 40
1.0
 40
1.0
 40
1.0
 10
64.37777
 20
-10.07056
 30
0.0
 10
64.37777
 20
-10.10748
 30
0.0
 10
64.38968
 20
-10.13547
 30
0.0
 10
64.4129
 20
-10.15393
 30
0.0
 10
64.4129
 20
-10.15393
 30
0.0
 10
64.43612
 20
-10.17239
 30
0.0
 10
64.46649
 20
-10.18192
 30
0.0
 10
64.50341
 20
-10.18192
 30
0.0
 10
64.50341
 20
-10.18192
 30
0.0
 10
64.50341
 20
-10.18192
 30
0.0
 10
64.55939
 20
-10.18192
 30
0.0
 10
64.55939
 20
-10.18192
 30
0.0
 10
64.55939
 20
-10.18192
 30
0.0
 10
64.55939
 20
-10.18192
 30
0.0
 10
64.55939
 20
-10.26588
 30
0.0
 10
64.55939
 20
-10.26588
 30
0.0
 10
64.55939
 20
-10.26588
 30
0.0
 10
64.55939
 20
-10.26588
 30
0.0
 10
63.95914
 20
-10.26588
 30
0.0
 10
63.95914
 20
-10.26588
 30
0.0
 10
63.95914
 20
-10.26588
 30
0.0
 10
63.95914
 20
-10.26588
 30
0.0
 10
63.95914
 20
-10.18192
 30
0.0
 10
63.95914
 20
-10.18192
 30
0.0
 10
63.95914
 20
-10.18192
 30
0.0
 10
63.95914
 20
-10.18192
 30
0.0
 10
64.02881
 20
-10.18192
 30
0.0
 10
64.02881
 20
-10.18192
 30
0.0
 10
64.02881
 20
-10.18192
 30
0.0
 10
64.07526
 20
-10.18192
 30
0.0
 10
64.10801
 20
-10.17239
 30
0.0
 10
64.12647
 20
-10.15393
 30
0.0
 10
64.12647
 20
-10.15393
 30
0.0
 10
64.14493
 20
-10.13547
 30
0.0
 10
64.15446
 20
-10.10748
 30
0.0
 10
64.15446
 20
-10.07056
 30
0.0
 10
64.15446
 20
-10.07056
 30
0.0
 10
64.15446
 20
-10.07056
 30
0.0
 10
64.15446
 20
-8.24241
 30
0.0
 10
64.15446
 20
-8.24241
 30
0.0
 10
64.15446
 20
-8.24241
 30
0.0
 10
64.15446
 20
-8.24241
 30
0.0
 10
64.12647
 20
-8.24241
 30
0.0
 10
64.12647
 20
-8.24241
 30
0.0
 10
64.12647
 20
-8.24241
 30
0.0
 10
64.12647
 20
-8.24241
 30
0.0
 10
63.65246
 20
-10.26588
 30
0.0
 10
63.65246
 20
-10.26588
 30
0.0
 10
63.65246
 20
-10.26588
 30
0.0
 10
63.65246
 20
-10.26588
 30
0.0
 10
63.5685
 20
-10.26588
 30
0.0
 10
63.5685
 20
-10.26588
 30
0.0
 10
63.5685
 20
-10.26588
 30
0.0
 10
63.5685
 20
-10.26588
 30
0.0
 10
63.5685
 20
-10.26588
 30
0.0
 10
63.5685
 20
-10.26588
 30
0.0
 10
63.5685
 20
-10.26588
 30
0.0
 10
63.5685
 20
-10.26588
 30
0.0
 10
63.13617
 20
-8.2841
 30
0.0
 10
63.13617
 20
-8.2841
 30
0.0
 10
63.13617
 20
-8.2841
 30
0.0
 10
63.13617
 20
-8.2841
 30
0.0
 10
63.10819
 20
-8.2841
 30
0.0
 10
63.10819
 20
-8.2841
 30
0.0
 10
63.10819
 20
-8.2841
 30
0.0
 10
63.10819
 20
-8.2841
 30
0.0
 10
63.10819
 20
-10.07056
 30
0.0
 10
63.10819
 20
-10.07056
 30
0.0
 10
63.10819
 20
-10.07056
 30
0.0
 10
63.10819
 20
-10.10748
 30
0.0
 10
63.1201
 20
-10.13547
 30
0.0
 10
63.14332
 20
-10.15393
 30
0.0
 10
63.14332
 20
-10.15393
 30
0.0
 10
63.16654
 20
-10.17239
 30
0.0
 10
63.19632
 20
-10.18192
 30
0.0
 10
63.23383
 20
-10.18192
 30
0.0
 10
63.23383
 20
-10.18192
 30
0.0
 10
63.23383
 20
-10.18192
 30
0.0
 10
63.27552
 20
-10.18192
 30
0.0
 10
63.27552
 20
-10.18192
 30
0.0
 10
63.27552
 20
-10.18192
 30
0.0
 10
63.27552
 20
-10.18192
 30
0.0
 10
63.27552
 20
-10.26588
 30
0.0
 10
63.27552
 20
-10.26588
 30
0.0
 10
63.27552
 20
-10.26588
 30
0.0
 10
63.27552
 20
-10.26588
 30
0.0
 10
62.85689
 20
-10.26588
 30
0.0
 10
62.85689
 20
-10.26588
 30
0.0
 10
62.85689
 20
-10.26588
 30
0.0
 10
62.85689
 20
-10.26588
 30
0.0
 10
62.85689
 20
-10.18192
 30
0.0
 10
62.85689
 20
-10.18192
 30
0.0
 10
62.85689
 20
-10.18192
 30
0.0
 10
62.85689
 20
-10.18192
 30
0.0
 10
62.89857
 20
-10.18192
 30
0.0
 10
62.89857
 20
-10.18192
 30
0.0
 10
62.89857
 20
-10.18192
 30
0.0
 10
62.94502
 20
-10.18192
 30
0.0
 10
62.97777
 20
-10.17239
 30
0.0
 10
62.99623
 20
-10.15393
 30
0.0
 10
62.99623
 20
-10.15393
 30
0.0
 10
63.01469
 20
-10.13547
 30
0.0
 10
63.02422
 20
-10.10748
 30
0.0
 10
63.02422
 20
-10.07056
 30
0.0
 10
63.02422
 20
-10.07056
 30
0.0
 10
63.02422
 20
-10.07056
 30
0.0
 10
63.02422
 20
-8.07449
 30
0.0
 10
63.02422
 20
-8.07449
 30
0.0
 10
63.02422
 20
-8.07449
 30
0.0
 10
63.02422
 20
-8.03757
 30
0.0
 10
63.01589
 20
-8.00958
 30
0.0
 10
62.99862
 20
-7.99112
 30
0.0
 10
62.99862
 20
-7.99112
 30
0.0
 10
62.98135
 20
-7.97266
 30
0.0
 10
62.95157
 20
-7.96313
 30
0.0
 10
62.9081
 20
-7.96313
 30
0.0
 10
62.9081
 20
-7.96313
 30
0.0
 10
62.9081
 20
-7.96313
 30
0.0
 10
62.85689
 20
-7.96313
 30
0.0
 10
62.85689
 20
-7.96313
 30
0.0
 10
62.85689
 20
-7.96313
 30
0.0
 10
62.85689
 20
-7.96313
 30
0.0
 10
62.85689
 20
-7.87917
 30
0.0
 10
62.85689
 20
-7.87917
 30
0.0
 10
62.85689
 20
-7.87917
 30
0.0
 10
62.85689
 20
-7.87917
 30
0.0
 10
63.24753
 20
-7.87917
 30
0.0
 10
63.24753
 20
-7.87917
 30
0.0
 10
63.24753
 20
-7.87917
 30
0.0
 10
63.24753
 20
-7.87917
 30
0.0
 10
63.64115
 20
-9.70017
 30
0.0
 10
63.64115
 20
-9.70017
 30
0.0
 10
63.64115
 20
-9.70017
 30
0.0
 10
63.64115
 20
-9.70017
 30
0.0
 10
63.66973
 20
-9.70017
 30
0.0
 10
63.66973
 20
-9.70017
 30
0.0
 10
63.66973
 20
-9.70017
 30
0.0
 10
63.66973
 20
-9.70017
 30
0.0
 10
64.11277
 20
-7.87917
 30
0.0
 10
64.11277
 20
-7.87917
 30
0.0
 10
64.11277
 20
-7.87917
 30
0.0
 10
64.11277
 20
-7.87917
 30
0.0
 10
64.55939
 20
-7.87917
 30
0.0
 10
64.55939
 20
-7.87917
 30
0.0
 10
64.55939
 20
-7.87917
 30
0.0
 10
64.55939
 20
-7.87917
 30
0.0
 10
64.55939
 20
-7.96313
 30
0.0
 10
64.55939
 20
-7.96313
 30
0.0
 10
64.55939
 20
-7.96313
 30
0.0
 10
64.55939
 20
-7.96313
 30
0.0
 10
64.50341
 20
-7.96313
 30
0.0
 10
64.50341
 20
-7.96313
 30
0.0
 10
64.50341
 20
-7.96313
 30
0.0
 10
64.46649
 20
-7.96313
 30
0.0
 10
64.43612
 20
-7.97266
 30
0.0
 10
64.4129
 20
-7.99112
 30
0.0
 10
64.4129
 20
-7.99112
 30
0.0
 10
64.38968
 20
-8.00958
 30
0.0
 10
64.37777
 20
-8.03757
 30
0.0
 10
64.37777
 20
-8.07449
 30
0.0
 10
64.37777
 20
-8.07449
 30
0.0
 10
64.37777
 20
-8.07449
 30
0.0
 10
64.37777
 20
-10.07056
 30
0.0
 10
64.37777
 20
-10.07056
 30
0.0
  0
SPLINE
  5
76
330
1F
100
AcDbEntity
  8
layer 1
 62
   250
100
AcDbSpline
210
0.0
220
0.0
230
1.0
 70
    11
 71
     3
 72
   168
 73
   164
 74
     0
 42
0.0000000001
 43
0.0000000001
 40
0.0
 40
0.0
 40
0.0
 40
0.0
 40
0.024390243902439
 40
0.024390243902439
 40
0.024390243902439
 40
0.024390243902439
 40
0.0487804878048781
 40
0.0487804878048781
 40
0.0487804878048781
 40
0.0487804878048781
 40
0.0731707317073171
 40
0.0731707317073171
 40
0.0731707317073171
 40
0.0731707317073171
 40
0.0975609756097561
 40
0.0975609756097561
 40
0.0975609756097561
 40
0.0975609756097561
 40
0.1219512195121951
 40
0.1219512195121951
 40
0.1219512195121951
 40
0.1219512195121951
 40
0.1463414634146341
 40
0.1463414634146341
 40
0.1463414634146341
 40
0.1463414634146341
 40
0.1707317073170732
 40
0.1707317073170732
 40
0.1707317073170732
 40
0.1707317073170732
 40
0.1951219512195122
 40
0.1951219512195122
 40
0.1951219512195122
 40
0.1951219512195122
 40
0.2195121951219512
 40
0.2195121951219512
 40
0.2195121951219512
 40
0.2195121951219512
 40
0.2439024390243902
 40
0.2439024390243902
 40
0.2439024390243902
 40
0.2439024390243902
 40
0.2682926829268292
 40
0.2682926829268292
 40
0.2682926829268292
 40
0.2682926829268292
 40
0.2926829268292683
 40
0.2926829268292683
 40
0.2926829268292683
 40
0.2926829268292683
 40
0.3170731707317073
 40
0.3170731707317073
 40
0.3170731707317073
 40
0.3170731707317073
 40
0.3414634146341464
 40
0.3414634146341464
 40
0.3414634146341464
 40
0.3414634146341464
 40
0.3658536585365854
 40
0.3658536585365854
 40
0.3658536585365854
 40
0.3658536585365854
 40
0.3902439024390245
 40
0.3902439024390245
 40
0.3902439024390245
 40
0.3902439024390245
 40
0.4146341463414635
 40
0.4146341463414635
 40
0.4146341463414635
 40
0.4146341463414635
 40
0.4390243902439026
 40
0.4390243902439026
 40
0.4390243902439026
 40
0.4390243902439026
 40
0.4634146341463416
 40
0.4634146341463416
 40
0.4634146341463416
 40
0.4634146341463416
 40
0.4878048780487806
 40
0.4878048780487806
 40
0.4878048780487806
 40
0.4878048780487806
 40
0.5121951219512196
 40
0.5121951219512196
 40
0.5121951219512196
 40
0.5121951219512196
 40
0.5365853658536587
 40
0.5365853658536587
 40
0.5365853658536587
 40
0.5365853658536587
 40
0.5609756097560977
 40
0.5609756097560977
 40
0.5609756097560977
 40
0.5609756097560977
 40
0.5853658536585368
 40
0.5853658536585368
 40
0.5853658536585368
 40
0.5853658536585368
 40
0.6097560975609758
 40
0.6097560975609758
 40
0.6097560975609758
 40
0.6097560975609758
 40
0.6341463414634149
 40
0.6341463414634149
 40
0.6341463414634149
 40
0.6341463414634149
 40
0.6585365853658539
 40
0.6585365853658539
 40
0.6585365853658539
 40
0.6585365853658539
 40
0.682926829268293
 40
0.682926829268293
 40
0.682926829268293
 40
0.682926829268293
 40
0.707317073170732
 40
0.707317073170732
 40
0.707317073170732
 40
0.707317073170732
 40
0.731707317073171
 40
0.731707317073171
 40
0.731707317073171
 40
0.731707317073171
 40
0.7560975609756101
 40
0.7560975609756101
 40
0.7560975609756101
 40
0.7560975609756101
 40
0.7804878048780491
 40
0.7804878048780491
 40
0.7804878048780491
 40
0.7804878048780491
 40
0.8048780487804882
 40
0.8048780487804882
 40
0.8048780487804882
 40
0.8048780487804882
 40
0.8292682926829272
 40
0.8292682926829272
 40
0.8292682926829272
 40
0.8292682926829272
 40
0.8536585365853663
 40
0.8536585365853663
 40
0.8536585365853663
 40
0.8536585365853663
 40
0.8780487804878053
 40
0.8780487804878053
 40
0.8780487804878053
 40
0.8780487804878053
 40
0.9024390243902444
 40
0.9024390243902444
 40
0.9024390243902444
 40
0.9024390243902444
 40
0.9268292682926834
 40
0.9268292682926834
 40
0.9268292682926834
 40
0.9268292682926834
 40
0.9512195121951225
 40
0.9512195121951225
 40
0.9512195121951225
 40
0.9512195121951225
 40
0.9756097560975615
 40
0.9756097560975615
 40
0.9756097560975615
 40
0.9756097560975615
 40
1.0
 40
1.0
 40
1.0
 40
1.0
 10
66.52153
 20
-10.07056
 30
0.0
 10
66.52153
 20
-10.10748
 30
0.0
 10
66.53344
 20
-10.13547
 30
0.0
 10
66.55666
 20
-10.15393
 30
0.0
 10
66.55666
 20
-10.15393
 30
0.0
 10
66.57988
 20
-10.17239
 30
0.0
 10
66.61025
 20
-10.18192
 30
0.0
 10
66.64717
 20
-10.18192
 30
0.0
 10
66.64717
 20
-10.18192
 30
0.0
 10
66.64717
 20
-10.18192
 30
0.0
 10
66.70315
 20
-10.18192
 30
0.0
 10
66.70315
 20
-10.18192
 30
0.0
 10
66.70315
 20
-10.18192
 30
0.0
 10
66.70315
 20
-10.18192
 30
0.0
 10
66.70315
 20
-10.26588
 30
0.0
 10
66.70315
 20
-10.26588
 30
0.0
 10
66.70315
 20
-10.26588
 30
0.0
 10
66.70315
 20
-10.26588
 30
0.0
 10
66.1029
 20
-10.26588
 30
0.0
 10
66.1029
 20
-10.26588
 30
0.0
 10
66.1029
 20
-10.26588
 30
0.0
 10
66.1029
 20
-10.26588
 30
0.0
 10
66.1029
 20
-10.18192
 30
0.0
 10
66.1029
 20
-10.18192
 30
0.0
 10
66.1029
 20
-10.18192
 30
0.0
 10
66.1029
 20
-10.18192
 30
0.0
 10
66.17257
 20
-10.18192
 30
0.0
 10
66.17257
 20
-10.18192
 30
0.0
 10
66.17257
 20
-10.18192
 30
0.0
 10
66.21902
 20
-10.18192
 30
0.0
 10
66.25177
 20
-10.17239
 30
0.0
 10
66.27023
 20
-10.15393
 30
0.0
 10
66.27023
 20
-10.15393
 30
0.0
 10
66.28869
 20
-10.13547
 30
0.0
 10
66.29822
 20
-10.10748
 30
0.0
 10
66.29822
 20
-10.07056
 30
0.0
 10
66.29822
 20
-10.07056
 30
0.0
 10
66.29822
 20
-10.07056
 30
0.0
 10
66.29822
 20
-8.24241
 30
0.0
 10
66.29822
 20
-8.24241
 30
0.0
 10
66.29822
 20
-8.24241
 30
0.0
 10
66.29822
 20
-8.24241
 30
0.0
 10
66.27023
 20
-8.24241
 30
0.0
 10
66.27023
 20
-8.24241
 30
0.0
 10
66.27023
 20
-8.24241
 30
0.0
 10
66.27023
 20
-8.24241
 30
0.0
 10
65.79622
 20
-10.26588
 30
0.0
 10
65.79622
 20
-10.26588
 30
0.0
 10
65.79622
 20
-10.26588
 30
0.0
 10
65.79622
 20
-10.26588
 30
0.0
 10
65.71226
 20
-10.26588
 30
0.0
 10
65.71226
 20
-10.26588
 30
0.0
 10
65.71226
 20
-10.26588
 30
0.0
 10
65.71226
 20
-10.26588
 30
0.0
 10
65.71226
 20
-10.26588
 30
0.0
 10
65.71226
 20
-10.26588
 30
0.0
 10
65.71226
 20
-10.26588
 30
0.0
 10
65.71226
 20
-10.26588
 30
0.0
 10
65.27993
 20
-8.2841
 30
0.0
 10
65.27993
 20
-8.2841
 30
0.0
 10
65.27993
 20
-8.2841
 30
0.0
 10
65.27993
 20
-8.2841
 30
0.0
 10
65.25195
 20
-8.2841
 30
0.0
 10
65.25195
 20
-8.2841
 30
0.0
 10
65.25195
 20
-8.2841
 30
0.0
 10
65.25195
 20
-8.2841
 30
0.0
 10
65.25195
 20
-10.07056
 30
0.0
 10
65.25195
 20
-10.07056
 30
0.0
 10
65.25195
 20
-10.07056
 30
0.0
 10
65.25195
 20
-10.10748
 30
0.0
 10
65.26386
 20
-10.13547
 30
0.0
 10
65.28708
 20
-10.15393
 30
0.0
 10
65.28708
 20
-10.15393
 30
0.0
 10
65.3103
 20
-10.17239
 30
0.0
 10
65.34008
 20
-10.18192
 30
0.0
 10
65.37759
 20
-10.18192
 30
0.0
 10
65.37759
 20
-10.18192
 30
0.0
 10
65.37759
 20
-10.18192
 30
0.0
 10
65.41928
 20
-10.18192
 30
0.0
 10
65.41928
 20
-10.18192
 30
0.0
 10
65.41928
 20
-10.18192
 30
0.0
 10
65.41928
 20
-10.18192
 30
0.0
 10
65.41928
 20
-10.26588
 30
0.0
 10
65.41928
 20
-10.26588
 30
0.0
 10
65.41928
 20
-10.26588
 30
0.0
 10
65.41928
 20
-10.26588
 30
0.0
 10
65.00065
 20
-10.26588
 30
0.0
 10
65.00065
 20
-10.26588
 30
0.0
 10
65.00065
 20
-10.26588
 30
0.0
 10
65.00065
 20
-10.26588
 30
0.0
 10
65.00065
 20
-10.18192
 30
0.0
 10
65.00065
 20
-10.18192
 30
0.0
 10
65.00065
 20
-10.18192
 30
0.0
 10
65.00065
 20
-10.18192
 30
0.0
 10
65.04233
 20
-10.18192
 30
0.0
 10
65.04233
 20
-10.18192
 30
0.0
 10
65.04233
 20
-10.18192
 30
0.0
 10
65.08878
 20
-10.18192
 30
0.0
 10
65.12153
 20
-10.17239
 30
0.0
 10
65.13999
 20
-10.15393
 30
0.0
 10
65.13999
 20
-10.15393
 30
0.0
 10
65.15845
 20
-10.13547
 30
0.0
 10
65.16798
 20
-10.10748
 30
0.0
 10
65.16798
 20
-10.07056
 30
0.0
 10
65.16798
 20
-10.07056
 30
0.0
 10
65.16798
 20
-10.07056
 30
0.0
 10
65.16798
 20
-8.07449
 30
0.0
 10
65.16798
 20
-8.07449
 30
0.0
 10
65.16798
 20
-8.07449
 30
0.0
 10
65.16798
 20
-8.03757
 30
0.0
 10
65.15965
 20
-8.00958
 30
0.0
 10
65.14238
 20
-7.99112
 30
0.0
 10
65.14238
 20
-7.99112
 30
0.0
 10
65.12511
 20
-7.97266
 30
0.0
 10
65.09533
 20
-7.96313
 30
0.0
 10
65.05186
 20
-7.96313
 30
0.0
 10
65.05186
 20
-7.96313
 30
0.0
 10
65.05186
 20
-7.96313
 30
0.0
 10
65.00065
 20
-7.96313
 30
0.0
 10
65.00065
 20
-7.96313
 30
0.0
 10
65.00065
 20
-7.96313
 30
0.0
 10
65.00065
 20
-7.96313
 30
0.0
 10
65.00065
 20
-7.87917
 30
0.0
 10
65.00065
 20
-7.87917
 30
0.0
 10
65.00065
 20
-7.87917
 30
0.0
 10
65.00065
 20
-7.87917
 30
0.0
 10
65.39129
 20
-7.87917
 30
0.0
 10
65.39129
 20
-7.87917
 30
0.0
 10
65.39129
 20
-7.87917
 30
0.0
 10
65.39129
 20
-7.87917
 30
0.0
 10
65.78491
 20
-9.70017
 30
0.0
 10
65.78491
 20
-9.70017
 30
0.0
 10
65.78491
 20
-9.70017
 30
0.0
 10
65.78491
 20
-9.70017
 30
0.0
 10
65.81349
 20
-9.70017
 30
0.0
 10
65.81349
 20
-9.70017
 30
0.0
 10
65.81349
 20
-9.70017
 30
0.0
 10
65.81349
 20
-9.70017
 30
0.0
 10
66.25653
 20
-7.87917
 30
0.0
 10
66.25653
 20
-7.87917
 30
0.0
 10
66.25653
 20
-7.87917
 30
0.0
 10
66.25653
 20
-7.87917
 30
0.0
 10
66.70315
 20
-7.87917
 30
0.0
 10
66.70315
 20
-7.87917
 30
0.0
 10
66.70315
 20
-7.87917
 30
0.0
 10
66.70315
 20
-7.87917
 30
0.0
 10
66.70315
 20
-7.96313
 30
0.0
 10
66.70315
 20
-7.96313
 30
0.0
 10
66.70315
 20
-7.96313
 30
0.0
 10
66.70315
 20
-7.96313
 30
0.0
 10
66.64717
 20
-7.96313
 30
0.0
 10
66.64717
 20
-7.96313
 30
0.0
 10
66.64717
 20
-7.96313
 30
0.0
 10
66.61025
 20
-7.96313
 30
0.0
 10
66.57988
 20
-7.97266
 30
0.0
 10
66.55666
 20
-7.99112
 30
0.0
 10
66.55666
 20
-7.99112
 30
0.0
 10
66.53344
 20
-8.00958
 30
0.0
 10
66.52153
 20
-8.03757
 30
0.0
 10
66.52153
 20
-8.07449
 30
0.0
 10
66.52153
 20
-8.07449
 30
0.0
 10
66.52153
 20
-8.07449
 30
0.0
 10
66.52153
 20
-10.07056
 30
0.0
 10
66.52153
 20
-10.07056
 30
0.0
  0
SPLINE
  5
77
330
1F
100
AcDbEntity
  8
layer 1
 62
   250
100
AcDbSpline
210
0.0
220
0.0
230
1.0
 70
    11
 71
     3
 72
    28
 73
    24
 74
     0
 42
0.0000000001
 43
0.0000000001
 40
0.0
 40
0.0
 40
0.0
 40
0.0
 40
0.1666666666666667
 40
0.1666666666666667
 40
0.1666666666666667
 40
0.1666666666666667
 40
0.3333333333333333
 40
0.3333333333333333
 40
0.3333333333333333
 40
0.3333333333333333
 40
0.5
 40
0.5
 40
0.5
 40
0.5
 40
0.6666666666666666
 40
0.6666666666666666
 40
0.6666666666666666
 40
0.6666666666666666
 40
0.8333333333333333
 40
0.8333333333333333
 40
0.8333333333333333
 40
0.8333333333333333
 40
1.0
 40
1.0
 40
1.0
 40
1.0
 10
44.81455
 20
-9.92407
 30
0.0
 10
44.89315
 20
-9.97529
 30
0.0
 10
44.93067
 20
-10.04496
 30
0.0
 10
44.9259
 20
-10.13369
 30
0.0
 10
44.9259
 20
-10.13369
 30
0.0
 10
44.92114
 20
-10.22182
 30
0.0
 10
44.87945
 20
-10.28911
 30
0.0
 10
44.80025
 20
-10.33556
 30
0.0
 10
44.80025
 20
-10.33556
 30
0.0
 10
44.72105
 20
-10.3826
 30
0.0
 10
44.64185
 20
-10.3826
 30
0.0
 10
44.56325
 20
-10.33556
 30
0.0
 10
44.56325
 20
-10.33556
 30
0.0
 10
44.48405
 20
-10.28911
 30
0.0
 10
44.44237
 20
-10.21944
 30
0.0
 10
44.4376
 20
-10.12654
 30
0.0
 10
44.4376
 20
-10.12654
 30
0.0
 10
44.43284
 20
-10.03364
 30
0.0
 10
44.47452
 20
-9.96338
 30
0.0
 10
44.56325
 20
-9.91693
 30
0.0
 10
44.56325
 20
-9.91693
 30
0.0
 10
44.65138
 20
-9.87048
 30
0.0
 10
44.73535
 20
-9.87286
 30
0.0
 10
44.81455
 20
-9.92407
 30
0.0
  0
SPLINE
  5
78
330
1F
100
AcDbEntity
  8
layer 1
 62
   250
100
AcDbSpline
210
0.0
220
0.0
230
1.0
 70
    11
 71
     3
 72
    28
 73
    24
 74
     0
 42
0.0000000001
 43
0.0000000001
 40
0.0
 40
0.0
 40
0.0
 40
0.0
 40
0.1666666666666667
 40
0.1666666666666667
 40
0.1666666666666667
 40
0.1666666666666667
 40
0.3333333333333333
 40
0.3333333333333333
 40
0.3333333333333333
 40
0.3333333333333333
 40
0.5
 40
0.5
 40
0.5
 40
0.5
 40
0.6666666666666666
 40
0.6666666666666666
 40
0.6666666666666666
 40
0.6666666666666666
 40
0.8333333333333333
 40
0.8333333333333333
 40
0.8333333333333333
 40
0.8333333333333333
 40
1.0
 40
1.0
 40
1.0
 40
1.0
 10
44.8211
 20
-9.08682
 30
0.0
 10
44.90506
 20
-9.1285
 30
0.0
 10
44.94674
 20
-9.19817
 30
0.0
 10
44.94674
 20
-9.29583
 30
0.0
 10
44.94674
 20
-9.29583
 30
0.0
 10
44.94674
 20
-9.39349
 30
0.0
 10
44.89791
 20
-9.46376
 30
0.0
 10
44.80025
 20
-9.50545
 30
0.0
 10
44.80025
 20
-9.50545
 30
0.0
 10
44.70259
 20
-9.54713
 30
0.0
 10
44.61684
 20
-9.54237
 30
0.0
 10
44.54241
 20
-9.49115
 30
0.0
 10
44.54241
 20
-9.49115
 30
0.0
 10
44.46797
 20
-9.44054
 30
0.0
 10
44.43284
 20
-9.37027
 30
0.0
 10
44.4376
 20
-9.28214
 30
0.0
 10
44.4376
 20
-9.28214
 30
0.0
 10
44.44237
 20
-9.19341
 30
0.0
 10
44.48643
 20
-9.1285
 30
0.0
 10
44.5698
 20
-9.08682
 30
0.0
 10
44.5698
 20
-9.08682
 30
0.0
 10
44.65376
 20
-9.04454
 30
0.0
 10
44.73773
 20
-9.04454
 30
0.0
 10
44.8211
 20
-9.08682
 30
0.0
  0
SPLINE
  5
79
330
1F
100
AcDbEntity
  8
layer 1
 62
   250
100
AcDbSpline
210
0.0
220
0.0
230
1.0
 70
    11
 71
     3
 72
   212
 73
   208
 74
     0
 42
0.0000000001
 43
0.0000000001
 40
0.0
 40
0.0
 40
0.0
 40
0.0
 40
0.0192307692307692
 40
0.0192307692307692
 40
0.0192307692307692
 40
0.0192307692307692
 40
0.0384615384615385
 40
0.0384615384615385
 40
0.0384615384615385
 40
0.0384615384615385
 40
0.0576923076923077
 40
0.0576923076923077
 40
0.0576923076923077
 40
0.0576923076923077
 40
0.0769230769230769
 40
0.0769230769230769
 40
0.0769230769230769
 40
0.0769230769230769
 40
0.0961538461538462
 40
0.0961538461538462
 40
0.0961538461538462
 40
0.0961538461538462
 40
0.1153846153846154
 40
0.1153846153846154
 40
0.1153846153846154
 40
0.1153846153846154
 40
0.1346153846153846
 40
0.1346153846153846
 40
0.1346153846153846
 40
0.1346153846153846
 40
0.1538461538461539
 40
0.1538461538461539
 40
0.1538461538461539
 40
0.1538461538461539
 40
0.1730769230769231
 40
0.1730769230769231
 40
0.1730769230769231
 40
0.1730769230769231
 40
0.1923076923076923
 40
0.1923076923076923
 40
0.1923076923076923
 40
0.1923076923076923
 40
0.2115384615384615
 40
0.2115384615384615
 40
0.2115384615384615
 40
0.2115384615384615
 40
0.2307692307692307
 40
0.2307692307692307
 40
0.2307692307692307
 40
0.2307692307692307
 40
0.2499999999999999
 40
0.2499999999999999
 40
0.2499999999999999
 40
0.2499999999999999
 40
0.2692307692307692
 40
0.2692307692307692
 40
0.2692307692307692
 40
0.2692307692307692
 40
0.2884615384615384
 40
0.2884615384615384
 40
0.2884615384615384
 40
0.2884615384615384
 40
0.3076923076923076
 40
0.3076923076923076
 40
0.3076923076923076
 40
0.3076923076923076
 40
0.3269230769230768
 40
0.3269230769230768
 40
0.3269230769230768
 40
0.3269230769230768
 40
0.346153846153846
 40
0.346153846153846
 40
0.346153846153846
 40
0.346153846153846
 40
0.3653846153846153
 40
0.3653846153846153
 40
0.3653846153846153
 40
0.3653846153846153
 40
0.3846153846153845
 40
0.3846153846153845
 40
0.3846153846153845
 40
0.3846153846153845
 40
0.4038461538461537
 40
0.4038461538461537
 40
0.4038461538461537
 40
0.4038461538461537
 40
0.4230769230769229
 40
0.4230769230769229
 40
0.4230769230769229
 40
0.4230769230769229
 40
0.4423076923076921
 40
0.4423076923076921
 40
0.4423076923076921
 40
0.4423076923076921
 40
0.4615384615384613
 40
0.4615384615384613
 40
0.4615384615384613
 40
0.4615384615384613
 40
0.4807692307692306
 40
0.4807692307692306
 40
0.4807692307692306
 40
0.4807692307692306
 40
0.4999999999999998
 40
0.4999999999999998
 40
0.4999999999999998
 40
0.4999999999999998
 40
0.519230769230769
 40
0.519230769230769
 40
0.519230769230769
 40
0.519230769230769
 40
0.5384615384615383
 40
0.5384615384615383
 40
0.5384615384615383
 40
0.5384615384615383
 40
0.5576923076923076
 40
0.5576923076923076
 40
0.5576923076923076
 40
0.5576923076923076
 40
0.5769230769230769
 40
0.5769230769230769
 40
0.5769230769230769
 40
0.5769230769230769
 40
0.5961538461538461
 40
0.5961538461538461
 40
0.5961538461538461
 40
0.5961538461538461
 40
0.6153846153846154
 40
0.6153846153846154
 40
0.6153846153846154
 40
0.6153846153846154
 40
0.6346153846153847
 40
0.6346153846153847
 40
0.6346153846153847
 40
0.6346153846153847
 40
0.653846153846154
 40
0.653846153846154
 40
0.653846153846154
 40
0.653846153846154
 40
0.6730769230769232
 40
0.6730769230769232
 40
0.6730769230769232
 40
0.6730769230769232
 40
0.6923076923076925
 40
0.6923076923076925
 40
0.6923076923076925
 40
0.6923076923076925
 40
0.7115384615384618
 40
0.7115384615384618
 40
0.7115384615384618
 40
0.7115384615384618
 40
0.7307692307692311
 40
0.7307692307692311
 40
0.7307692307692311
 40
0.7307692307692311
 40
0.7500000000000003
 40
0.7500000000000003
 40
0.7500000000000003
 40
0.7500000000000003
 40
0.7692307692307696
 40
0.7692307692307696
 40
0.7692307692307696
 40
0.7692307692307696
 40
0.7884615384615389
 40
0.7884615384615389
 40
0.7884615384615389
 40
0.7884615384615389
 40
0.8076923076923082
 40
0.8076923076923082
 40
0.8076923076923082
 40
0.8076923076923082
 40
0.8269230769230774
 40
0.8269230769230774
 40
0.8269230769230774
 40
0.8269230769230774
 40
0.8461538461538467
 40
0.8461538461538467
 40
0.8461538461538467
 40
0.8461538461538467
 40
0.865384615384616
 40
0.865384615384616
 40
0.865384615384616
 40
0.865384615384616
 40
0.8846153846153852
 40
0.8846153846153852
 40
0.8846153846153852
 40
0.8846153846153852
 40
0.9038461538461545
 40
0.9038461538461545
 40
0.9038461538461545
 40
0.9038461538461545
 40
0.9230769230769238
 40
0.9230769230769238
 40
0.9230769230769238
 40
0.9230769230769238
 40
0.9423076923076931
 40
0.9423076923076931
 40
0.9423076923076931
 40
0.9423076923076931
 40
0.9615384615384623
 40
0.9615384615384623
 40
0.9615384615384623
 40
0.9615384615384623
 40
0.9807692307692316
 40
0.9807692307692316
 40
0.9807692307692316
 40
0.9807692307692316
 40
1.0
 40
1.0
 40
1.0
 40
1.0
 10
55.52393
 20
-8.85636
 30
0.0
 10
55.52393
 20
-8.85636
 30
0.0
 10
55.04932
 20
-9.03739
 30
0.0
 10
55.04932
 20
-9.03739
 30
0.0
 10
55.04932
 20
-9.03739
 30
0.0
 10
55.04932
 20
-9.03739
 30
0.0
 10
55.52393
 20
-9.21902
 30
0.0
 10
55.52393
 20
-9.21902
 30
0.0
 10
55.52393
 20
-9.21902
 30
0.0
 10
55.64481
 20
-9.26546
 30
0.0
 10
55.71448
 20
-9.30298
 30
0.0
 10
55.73294
 20
-9.33097
 30
0.0
 10
55.73294
 20
-9.33097
 30
0.0
 10
55.7514
 20
-9.35896
 30
0.0
 10
55.76093
 20
-9.38635
 30
0.0
 10
55.76093
 20
-9.41434
 30
0.0
 10
55.76093
 20
-9.41434
 30
0.0
 10
55.76093
 20
-9.48877
 30
0.0
 10
55.74723
 20
-9.53105
 30
0.0
 10
55.71984
 20
-9.53998
 30
0.0
 10
55.71984
 20
-9.53998
 30
0.0
 10
55.69245
 20
-9.54951
 30
0.0
 10
55.66506
 20
-9.55428
 30
0.0
 10
55.63766
 20
-9.55428
 30
0.0
 10
55.63766
 20
-9.55428
 30
0.0
 10
55.61027
 20
-9.55428
 30
0.0
 10
55.58288
 20
-9.54713
 30
0.0
 10
55.55549
 20
-9.53343
 30
0.0
 10
55.55549
 20
-9.53343
 30
0.0
 10
55.52809
 20
-9.51914
 30
0.0
 10
55.49594
 20
-9.4983
 30
0.0
 10
55.45961
 20
-9.47031
 30
0.0
 10
55.45961
 20
-9.47031
 30
0.0
 10
55.45961
 20
-9.47031
 30
0.0
 10
55.03503
 20
-9.07967
 30
0.0
 10
55.03503
 20
-9.07967
 30
0.0
 10
55.03503
 20
-9.07967
 30
0.0
 10
55.03503
 20
-9.07967
 30
0.0
 10
55.1309
 20
-9.66563
 30
0.0
 10
55.1309
 20
-9.66563
 30
0.0
 10
55.1309
 20
-9.66563
 30
0.0
 10
55.13984
 20
-9.69362
 30
0.0
 10
55.1446
 20
-9.71923
 30
0.0
 10
55.1446
 20
-9.74245
 30
0.0
 10
55.1446
 20
-9.74245
 30
0.0
 10
55.1446
 20
-9.76567
 30
0.0
 10
55.1446
 20
-9.78235
 30
0.0
 10
55.1446
 20
-9.79128
 30
0.0
 10
55.1446
 20
-9.79128
 30
0.0
 10
55.1446
 20
-9.84726
 30
0.0
 10
55.1309
 20
-9.88656
 30
0.0
 10
55.10351
 20
-9.90978
 30
0.0
 10
55.10351
 20
-9.90978
 30
0.0
 10
55.07612
 20
-9.93301
 30
0.0
 10
55.04396
 20
-9.94492
 30
0.0
 10
55.00764
 20
-9.94492
 30
0.0
 10
55.00764
 20
-9.94492
 30
0.0
 10
54.97905
 20
-9.94492
 30
0.0
 10
54.94809
 20
-9.93539
 30
0.0
 10
54.91474
 20
-9.91693
 30
0.0
 10
54.91474
 20
-9.91693
 30
0.0
 10
54.88199
 20
-9.89847
 30
0.0
 10
54.86532
 20
-9.85678
 30
0.0
 10
54.86532
 20
-9.79128
 30
0.0
 10
54.86532
 20
-9.79128
 30
0.0
 10
54.86532
 20
-9.77282
 30
0.0
 10
54.8677
 20
-9.75436
 30
0.0
 10
54.87246
 20
-9.7353
 30
0.0
 10
54.87246
 20
-9.7353
 30
0.0
 10
54.87723
 20
-9.71684
 30
0.0
 10
54.87961
 20
-9.69362
 30
0.0
 10
54.87961
 20
-9.66563
 30
0.0
 10
54.87961
 20
-9.66563
 30
0.0
 10
54.87961
 20
-9.66563
 30
0.0
 10
54.99335
 20
-9.07967
 30
0.0
 10
54.99335
 20
-9.07967
 30
0.0
 10
54.99335
 20
-9.07967
 30
0.0
 10
54.99335
 20
-9.07967
 30
0.0
 10
54.55209
 20
-9.47031
 30
0.0
 10
54.55209
 20
-9.47031
 30
0.0
 10
54.55209
 20
-9.47031
 30
0.0
 10
54.5241
 20
-9.48877
 30
0.0
 10
54.49314
 20
-9.50783
 30
0.0
 10
54.45979
 20
-9.52629
 30
0.0
 10
54.45979
 20
-9.52629
 30
0.0
 10
54.42644
 20
-9.54475
 30
0.0
 10
54.39607
 20
-9.55428
 30
0.0
 10
54.36749
 20
-9.55428
 30
0.0
 10
54.36749
 20
-9.55428
 30
0.0
 10
54.3389
 20
-9.55428
 30
0.0
 10
54.31032
 20
-9.54475
 30
0.0
 10
54.28233
 20
-9.52629
 30
0.0
 10
54.28233
 20
-9.52629
 30
0.0
 10
54.25375
 20
-9.50783
 30
0.0
 10
54.23946
 20
-9.47031
 30
0.0
 10
54.23946
 20
-9.41434
 30
0.0
 10
54.23946
 20
-9.41434
 30
0.0
 10
54.23946
 20
-9.37742
 30
0.0
 10
54.25315
 20
-9.34466
 30
0.0
 10
54.28114
 20
-9.31668
 30
0.0
 10
54.28114
 20
-9.31668
 30
0.0
 10
54.30913
 20
-9.28869
 30
0.0
 10
54.37463
 20
-9.25653
 30
0.0
 10
54.47646
 20
-9.21902
 30
0.0
 10
54.47646
 20
-9.21902
 30
0.0
 10
54.47646
 20
-9.21902
 30
0.0
 10
54.95107
 20
-9.03739
 30
0.0
 10
54.95107
 20
-9.03739
 30
0.0
 10
54.95107
 20
-9.03739
 30
0.0
 10
54.95107
 20
-9.03739
 30
0.0
 10
54.47646
 20
-8.85636
 30
0.0
 10
54.47646
 20
-8.85636
 30
0.0
 10
54.47646
 20
-8.85636
 30
0.0
 10
54.41155
 20
-8.82838
 30
0.0
 10
54.35558
 20
-8.80277
 30
0.0
 10
54.30913
 20
-8.77955
 30
0.0
 10
54.30913
 20
-8.77955
 30
0.0
 10
54.26268
 20
-8.75632
 30
0.0
 10
54.23946
 20
-8.71642
 30
0.0
 10
54.23946
 20
-8.66104
 30
0.0
 10
54.23946
 20
-8.66104
 30
0.0
 10
54.23946
 20
-8.61459
 30
0.0
 10
54.25315
 20
-8.57946
 30
0.0
 10
54.28114
 20
-8.55624
 30
0.0
 10
54.28114
 20
-8.55624
 30
0.0
 10
54.30913
 20
-8.53301
 30
0.0
 10
54.33712
 20
-8.5211
 30
0.0
 10
54.36511
 20
-8.5211
 30
0.0
 10
54.36511
 20
-8.5211
 30
0.0
 10
54.39309
 20
-8.5211
 30
0.0
 10
54.42346
 20
-8.52825
 30
0.0
 10
54.45562
 20
-8.54195
 30
0.0
 10
54.45562
 20
-8.54195
 30
0.0
 10
54.48837
 20
-8.55624
 30
0.0
 10
54.51874
 20
-8.57708
 30
0.0
 10
54.54673
 20
-8.60507
 30
0.0
 10
54.54673
 20
-8.60507
 30
0.0
 10
54.54673
 20
-8.60507
 30
0.0
 10
54.97965
 20
-8.99571
 30
0.0
 10
54.97965
 20
-8.99571
 30
0.0
 10
54.97965
 20
-8.99571
 30
0.0
 10
54.97965
 20
-8.99571
 30
0.0
 10
54.88139
 20
-8.40975
 30
0.0
 10
54.88139
 20
-8.40975
 30
0.0
 10
54.88139
 20
-8.40975
 30
0.0
 10
54.88139
 20
-8.38176
 30
0.0
 10
54.87961
 20
-8.35853
 30
0.0
 10
54.87484
 20
-8.34007
 30
0.0
 10
54.87484
 20
-8.34007
 30
0.0
 10
54.87008
 20
-8.32102
 30
0.0
 10
54.8677
 20
-8.30256
 30
0.0
 10
54.8677
 20
-8.2841
 30
0.0
 10
54.8677
 20
-8.2841
 30
0.0
 10
54.8677
 20
-8.24658
 30
0.0
 10
54.88139
 20
-8.21204
 30
0.0
 10
54.90938
 20
-8.17929
 30
0.0
 10
54.90938
 20
-8.17929
 30
0.0
 10
54.93737
 20
-8.14654
 30
0.0
 10
54.97012
 20
-8.13046
 30
0.0
 10
55.00764
 20
-8.13046
 30
0.0
 10
55.00764
 20
-8.13046
 30
0.0
 10
55.06302
 20
-8.13046
 30
0.0
 10
55.10053
 20
-8.14892
 30
0.0
 10
55.11899
 20
-8.18644
 30
0.0
 10
55.11899
 20
-8.18644
 30
0.0
 10
55.13745
 20
-8.22336
 30
0.0
 10
55.14698
 20
-8.25611
 30
0.0
 10
55.14698
 20
-8.2841
 30
0.0
 10
55.14698
 20
-8.2841
 30
0.0
 10
55.14698
 20
-8.30256
 30
0.0
 10
55.14698
 20
-8.3234
 30
0.0
 10
55.14698
 20
-8.34663
 30
0.0
 10
55.14698
 20
-8.34663
 30
0.0
 10
55.14698
 20
-8.36985
 30
0.0
 10
55.14222
 20
-8.39129
 30
0.0
 10
55.13269
 20
-8.40975
 30
0.0
 10
55.13269
 20
-8.40975
 30
0.0
 10
55.13269
 20
-8.40975
 30
0.0
 10
55.02133
 20
-8.99571
 30
0.0
 10
55.02133
 20
-8.99571
 30
0.0
 10
55.02133
 20
-8.99571
 30
0.0
 10
55.02133
 20
-8.99571
 30
0.0
 10
55.45366
 20
-8.60507
 30
0.0
 10
55.45366
 20
-8.60507
 30
0.0
 10
55.45366
 20
-8.60507
 30
0.0
 10
55.49117
 20
-8.56755
 30
0.0
 10
55.52393
 20
-8.54433
 30
0.0
 10
55.55132
 20
-8.53539
 30
0.0
 10
55.55132
 20
-8.53539
 30
0.0
 10
55.57931
 20
-8.52587
 30
0.0
 10
55.60729
 20
-8.5211
 30
0.0
 10
55.63528
 20
-8.5211
 30
0.0
 10
55.63528
 20
-8.5211
 30
0.0
 10
55.6728
 20
-8.5211
 30
0.0
 10
55.70257
 20
-8.53539
 30
0.0
 10
55.7258
 20
-8.56338
 30
0.0
 10
55.7258
 20
-8.56338
 30
0.0
 10
55.74902
 20
-8.59078
 30
0.0
 10
55.76093
 20
-8.62353
 30
0.0
 10
55.76093
 20
-8.66104
 30
0.0
 10
55.76093
 20
-8.66104
 30
0.0
 10
55.76093
 20
-8.69796
 30
0.0
 10
55.7514
 20
-8.72833
 30
0.0
 10
55.73294
 20
-8.75156
 30
0.0
 10
55.73294
 20
-8.75156
 30
0.0
 10
55.71448
 20
-8.77478
 30
0.0
 10
55.64481
 20
-8.80992
 30
0.0
 10
55.52393
 20
-8.85636
 30
0.0
  0
SPLINE
  5
7A
330
1F
100
AcDbEntity
  8
layer 1
 62
   250
100
AcDbSpline
210
0.0
220
0.0
230
1.0
 70
    11
 71
     3
 72
    36
 73
    32
 74
     0
 42
0.0000000001
 43
0.0000000001
 40
0.0
 40
0.0
 40
0.0
 40
0.0
 40
0.125
 40
0.125
 40
0.125
 40
0.125
 40
0.25
 40
0.25
 40
0.25
 40
0.25
 40
0.375
 40
0.375
 40
0.375
 40
0.375
 40
0.5
 40
0.5
 40
0.5
 40
0.5
 40
0.625
 40
0.625
 40
0.625
 40
0.625
 40
0.75
 40
0.75
 40
0.75
 40
0.75
 40
0.875
 40
0.875
 40
0.875
 40
0.875
 40
1.0
 40
1.0
 40
1.0
 40
1.0
 10
35.04989
 20
2.68671
 30
0.0
 10
35.04989
 20
2.68671
 30
0.0
 10
35.04989
 20
4.63485
 30
0.0
 10
35.04989
 20
4.63485
 30
0.0
 10
35.04989
 20
4.63485
 30
0.0
 10
35.04989
 20
4.63485
 30
0.0
 10
34.32217
 20
4.63485
 30
0.0
 10
34.32217
 20
4.63485
 30
0.0
 10
34.32217
 20
4.63485
 30
0.0
 10
34.32217
 20
4.63485
 30
0.0
 10
34.32217
 20
4.89559
 30
0.0
 10
34.32217
 20
4.89559
 30
0.0
 10
34.32217
 20
4.89559
 30
0.0
 10
34.32217
 20
4.89559
 30
0.0
 10
36.07281
 20
4.89559
 30
0.0
 10
36.07281
 20
4.89559
 30
0.0
 10
36.07281
 20
4.89559
 30
0.0
 10
36.07281
 20
4.89559
 30
0.0
 10
36.07281
 20
4.63485
 30
0.0
 10
36.07281
 20
4.63485
 30
0.0
 10
36.07281
 20
4.63485
 30
0.0
 10
36.07281
 20
4.63485
 30
0.0
 10
35.34201
 20
4.63485
 30
0.0
 10
35.34201
 20
4.63485
 30
0.0
 10
35.34201
 20
4.63485
 30
0.0
 10
35.34201
 20
4.63485
 30
0.0
 10
35.34201
 20
2.68671
 30
0.0
 10
35.34201
 20
2.68671
 30
0.0
 10
35.34201
 20
2.68671
 30
0.0
 10
35.34201
 20
2.68671
 30
0.0
 10
35.04989
 20
2.68671
 30
0.0
 10
35.04989
 20
2.68671
 30
0.0
  0
SPLINE
  5
7B
330
1F
100
AcDbEntity
  8
layer 1
 62
   250
100
AcDbSpline
210
0.0
220
0.0
230
1.0
 70
    11
 71
     3
 72
    52
 73
    48
 74
     0
 42
0.0000000001
 43
0.0000000001
 40
0.0
 40
0.0
 40
0.0
 40
0.0
 40
0.0833333333333333
 40
0.0833333333333333
 40
0.0833333333333333
 40
0.0833333333333333
 40
0.1666666666666667
 40
0.1666666666666667
 40
0.1666666666666667
 40
0.1666666666666667
 40
0.25
 40
0.25
 40
0.25
 40
0.25
 40
0.3333333333333333
 40
0.3333333333333333
 40
0.3333333333333333
 40
0.3333333333333333
 40
0.4166666666666666
 40
0.4166666666666666
 40
0.4166666666666666
 40
0.4166666666666666
 40
0.4999999999999999
 40
0.4999999999999999
 40
0.4999999999999999
 40
0.4999999999999999
 40
0.5833333333333333
 40
0.5833333333333333
 40
0.5833333333333333
 40
0.5833333333333333
 40
0.6666666666666666
 40
0.6666666666666666
 40
0.6666666666666666
 40
0.6666666666666666
 40
0.75
 40
0.75
 40
0.75
 40
0.75
 40
0.8333333333333334
 40
0.8333333333333334
 40
0.8333333333333334
 40
0.8333333333333334
 40
0.9166666666666667
 40
0.9166666666666667
 40
0.9166666666666667
 40
0.9166666666666667
 40
1.0
 40
1.0
 40
1.0
 40
1.0
 10
36.55028
 20
2.68671
 30
0.0
 10
36.55028
 20
2.68671
 30
0.0
 10
36.55028
 20
4.89559
 30
0.0
 10
36.55028
 20
4.89559
 30
0.0
 10
36.55028
 20
4.89559
 30
0.0
 10
36.55028
 20
4.89559
 30
0.0
 10
38.14715
 20
4.89559
 30
0.0
 10
38.14715
 20
4.89559
 30
0.0
 10
38.14715
 20
4.89559
 30
0.0
 10
38.14715
 20
4.89559
 30
0.0
 10
38.14715
 20
4.63485
 30
0.0
 10
38.14715
 20
4.63485
 30
0.0
 10
38.14715
 20
4.63485
 30
0.0
 10
38.14715
 20
4.63485
 30
0.0
 10
36.8424
 20
4.63485
 30
0.0
 10
36.8424
 20
4.63485
 30
0.0
 10
36.8424
 20
4.63485
 30
0.0
 10
36.8424
 20
4.63485
 30
0.0
 10
36.8424
 20
3.95855
 30
0.0
 10
36.8424
 20
3.95855
 30
0.0
 10
36.8424
 20
3.95855
 30
0.0
 10
36.8424
 20
3.95855
 30
0.0
 10
38.06435
 20
3.95855
 30
0.0
 10
38.06435
 20
3.95855
 30
0.0
 10
38.06435
 20
3.95855
 30
0.0
 10
38.06435
 20
3.95855
 30
0.0
 10
38.06435
 20
3.69935
 30
0.0
 10
38.06435
 20
3.69935
 30
0.0
 10
38.06435
 20
3.69935
 30
0.0
 10
38.06435
 20
3.69935
 30
0.0
 10
36.8424
 20
3.69935
 30
0.0
 10
36.8424
 20
3.69935
 30
0.0
 10
36.8424
 20
3.69935
 30
0.0
 10
36.8424
 20
3.69935
 30
0.0
 10
36.8424
 20
2.94746
 30
0.0
 10
36.8424
 20
2.94746
 30
0.0
 10
36.8424
 20
2.94746
 30
0.0
 10
36.8424
 20
2.94746
 30
0.0
 10
38.19858
 20
2.94746
 30
0.0
 10
38.19858
 20
2.94746
 30
0.0
 10
38.19858
 20
2.94746
 30
0.0
 10
38.19858
 20
2.94746
 30
0.0
 10
38.19858
 20
2.68671
 30
0.0
 10
38.19858
 20
2.68671
 30
0.0
 10
38.19858
 20
2.68671
 30
0.0
 10
38.19858
 20
2.68671
 30
0.0
 10
36.55028
 20
2.68671
 30
0.0
 10
36.55028
 20
2.68671
 30
0.0
  0
SPLINE
  5
7C
330
1F
100
AcDbEntity
  8
layer 1
 62
   250
100
AcDbSpline
210
0.0
220
0.0
230
1.0
 70
    11
 71
     3
 72
    92
 73
    88
 74
     0
 42
0.0000000001
 43
0.0000000001
 40
0.0
 40
0.0
 40
0.0
 40
0.0
 40
0.0454545454545455
 40
0.0454545454545455
 40
0.0454545454545455
 40
0.0454545454545455
 40
0.0909090909090909
 40
0.0909090909090909
 40
0.0909090909090909
 40
0.0909090909090909
 40
0.1363636363636364
 40
0.1363636363636364
 40
0.1363636363636364
 40
0.1363636363636364
 40
0.1818181818181818
 40
0.1818181818181818
 40
0.1818181818181818
 40
0.1818181818181818
 40
0.2272727272727273
 40
0.2272727272727273
 40
0.2272727272727273
 40
0.2272727272727273
 40
0.2727272727272728
 40
0.2727272727272728
 40
0.2727272727272728
 40
0.2727272727272728
 40
0.3181818181818182
 40
0.3181818181818182
 40
0.3181818181818182
 40
0.3181818181818182
 40
0.3636363636363637
 40
0.3636363636363637
 40
0.3636363636363637
 40
0.3636363636363637
 40
0.4090909090909092
 40
0.4090909090909092
 40
0.4090909090909092
 40
0.4090909090909092
 40
0.4545454545454546
 40
0.4545454545454546
 40
0.4545454545454546
 40
0.4545454545454546
 40
0.5000000000000001
 40
0.5000000000000001
 40
0.5000000000000001
 40
0.5000000000000001
 40
0.5454545454545455
 40
0.5454545454545455
 40
0.5454545454545455
 40
0.5454545454545455
 40
0.5909090909090909
 40
0.5909090909090909
 40
0.5909090909090909
 40
0.5909090909090909
 40
0.6363636363636364
 40
0.6363636363636364
 40
0.6363636363636364
 40
0.6363636363636364
 40
0.6818181818181818
 40
0.6818181818181818
 40
0.6818181818181818
 40
0.6818181818181818
 40
0.7272727272727272
 40
0.7272727272727272
 40
0.7272727272727272
 40
0.7272727272727272
 40
0.7727272727272726
 40
0.7727272727272726
 40
0.7727272727272726
 40
0.7727272727272726
 40
0.818181818181818
 40
0.818181818181818
 40
0.818181818181818
 40
0.818181818181818
 40
0.8636363636363634
 40
0.8636363636363634
 40
0.8636363636363634
 40
0.8636363636363634
 40
0.9090909090909088
 40
0.9090909090909088
 40
0.9090909090909088
 40
0.9090909090909088
 40
0.9545454545454543
 40
0.9545454545454543
 40
0.9545454545454543
 40
0.9545454545454543
 40
1.0
 40
1.0
 40
1.0
 40
1.0
 10
40.34956
 20
3.46123
 30
0.0
 10
40.34956
 20
3.46123
 30
0.0
 10
40.64219
 20
3.38718
 30
0.0
 10
40.64219
 20
3.38718
 30
0.0
 10
40.64219
 20
3.38718
 30
0.0
 10
40.58099
 20
3.14752
 30
0.0
 10
40.47042
 20
2.96443
 30
0.0
 10
40.3115
 20
2.83791
 30
0.0
 10
40.3115
 20
2.83791
 30
0.0
 10
40.15207
 20
2.71191
 30
0.0
 10
39.95767
 20
2.64917
 30
0.0
 10
39.72726
 20
2.64917
 30
0.0
 10
39.72726
 20
2.64917
 30
0.0
 10
39.48915
 20
2.64917
 30
0.0
 10
39.29577
 20
2.69751
 30
0.0
 10
39.14663
 20
2.7942
 30
0.0
 10
39.14663
 20
2.7942
 30
0.0
 10
38.99748
 20
2.8914
 30
0.0
 10
38.88383
 20
3.0318
 30
0.0
 10
38.80617
 20
3.2154
 30
0.0
 10
38.80617
 20
3.2154
 30
0.0
 10
38.72851
 20
3.39952
 30
0.0
 10
38.68942
 20
3.59701
 30
0.0
 10
38.68942
 20
3.80787
 30
0.0
 10
38.68942
 20
3.80787
 30
0.0
 10
38.68942
 20
4.03775
 30
0.0
 10
38.73314
 20
4.23833
 30
0.0
 10
38.82108
 20
4.40959
 30
0.0
 10
38.82108
 20
4.40959
 30
0.0
 10
38.90903
 20
4.58085
 30
0.0
 10
39.034
 20
4.71096
 30
0.0
 10
39.19651
 20
4.79993
 30
0.0
 10
39.19651
 20
4.79993
 30
0.0
 10
39.35852
 20
4.88891
 30
0.0
 10
39.53698
 20
4.93314
 30
0.0
 10
39.73189
 20
4.93314
 30
0.0
 10
39.73189
 20
4.93314
 30
0.0
 10
39.95304
 20
4.93314
 30
0.0
 10
40.1387
 20
4.87708
 30
0.0
 10
40.28938
 20
4.76445
 30
0.0
 10
40.28938
 20
4.76445
 30
0.0
 10
40.44007
 20
4.65182
 30
0.0
 10
40.54499
 20
4.49393
 30
0.0
 10
40.60413
 20
4.28976
 30
0.0
 10
40.60413
 20
4.28976
 30
0.0
 10
40.60413
 20
4.28976
 30
0.0
 10
40.31664
 20
4.22187
 30
0.0
 10
40.31664
 20
4.22187
 30
0.0
 10
40.31664
 20
4.22187
 30
0.0
 10
40.26521
 20
4.38284
 30
0.0
 10
40.19115
 20
4.49959
 30
0.0
 10
40.09344
 20
4.57313
 30
0.0
 10
40.09344
 20
4.57313
 30
0.0
 10
39.99624
 20
4.64668
 30
0.0
 10
39.87384
 20
4.68319
 30
0.0
 10
39.72572
 20
4.68319
 30
0.0
 10
39.72572
 20
4.68319
 30
0.0
 10
39.556
 20
4.68319
 30
0.0
 10
39.41457
 20
4.64256
 30
0.0
 10
39.3004
 20
4.5613
 30
0.0
 10
39.3004
 20
4.5613
 30
0.0
 10
39.18623
 20
4.47953
 30
0.0
 10
39.106
 20
4.3705
 30
0.0
 10
39.06023
 20
4.23319
 30
0.0
 10
39.06023
 20
4.23319
 30
0.0
 10
39.01394
 20
4.09638
 30
0.0
 10
38.9908
 20
3.95495
 30
0.0
 10
38.9908
 20
3.80941
 30
0.0
 10
38.9908
 20
3.80941
 30
0.0
 10
38.9908
 20
3.62118
 30
0.0
 10
39.01806
 20
3.45763
 30
0.0
 10
39.07257
 20
3.31723
 30
0.0
 10
39.07257
 20
3.31723
 30
0.0
 10
39.1276
 20
3.17734
 30
0.0
 10
39.21246
 20
3.07243
 30
0.0
 10
39.32817
 20
3.003
 30
0.0
 10
39.32817
 20
3.003
 30
0.0
 10
39.44389
 20
2.93357
 30
0.0
 10
39.56886
 20
2.89911
 30
0.0
 10
39.70361
 20
2.89911
 30
0.0
 10
39.70361
 20
2.89911
 30
0.0
 10
39.86715
 20
2.89911
 30
0.0
 10
40.0055
 20
2.94643
 30
0.0
 10
40.11915
 20
3.04054
 30
0.0
 10
40.11915
 20
3.04054
 30
0.0
 10
40.23281
 20
3.13517
 30
0.0
 10
40.30944
 20
3.27557
 30
0.0
 10
40.34956
 20
3.46123
 30
0.0
  0
SPLINE
  5
7D
330
1F
100
AcDbEntity
  8
layer 1
 62
   250
100
AcDbSpline
210
0.0
220
0.0
230
1.0
 70
    11
 71
     3
 72
    48
 73
    44
 74
     0
 42
0.0000000001
 43
0.0000000001
 40
0.0
 40
0.0
 40
0.0
 40
0.0
 40
0.0909090909090909
 40
0.0909090909090909
 40
0.0909090909090909
 40
0.0909090909090909
 40
0.1818181818181818
 40
0.1818181818181818
 40
0.1818181818181818
 40
0.1818181818181818
 40
0.2727272727272727
 40
0.2727272727272727
 40
0.2727272727272727
 40
0.2727272727272727
 40
0.3636363636363636
 40
0.3636363636363636
 40
0.3636363636363636
 40
0.3636363636363636
 40
0.4545454545454546
 40
0.4545454545454546
 40
0.4545454545454546
 40
0.4545454545454546
 40
0.5454545454545455
 40
0.5454545454545455
 40
0.5454545454545455
 40
0.5454545454545455
 40
0.6363636363636365
 40
0.6363636363636365
 40
0.6363636363636365
 40
0.6363636363636365
 40
0.7272727272727274
 40
0.7272727272727274
 40
0.7272727272727274
 40
0.7272727272727274
 40
0.8181818181818183
 40
0.8181818181818183
 40
0.8181818181818183
 40
0.8181818181818183
 40
0.9090909090909093
 40
0.9090909090909093
 40
0.9090909090909093
 40
0.9090909090909093
 40
1.0
 40
1.0
 40
1.0
 40
1.0
 10
41.08468
 20
3.76261
 30
0.0
 10
41.08468
 20
4.1293
 30
0.0
 10
41.18291
 20
4.41627
 30
0.0
 10
41.37989
 20
4.62353
 30
0.0
 10
41.37989
 20
4.62353
 30
0.0
 10
41.57686
 20
4.83079
 30
0.0
 10
41.83092
 20
4.93468
 30
0.0
 10
42.14258
 20
4.93468
 30
0.0
 10
42.14258
 20
4.93468
 30
0.0
 10
42.34624
 20
4.93468
 30
0.0
 10
42.53036
 20
4.88582
 30
0.0
 10
42.6939
 20
4.78862
 30
0.0
 10
42.6939
 20
4.78862
 30
0.0
 10
42.85745
 20
4.6909
 30
0.0
 10
42.98242
 20
4.55513
 30
0.0
 10
43.06831
 20
4.38079
 30
0.0
 10
43.06831
 20
4.38079
 30
0.0
 10
43.15419
 20
4.20696
 30
0.0
 10
43.19688
 20
4.00895
 30
0.0
 10
43.19688
 20
3.78832
 30
0.0
 10
43.19688
 20
3.78832
 30
0.0
 10
43.19688
 20
3.56409
 30
0.0
 10
43.15214
 20
3.36352
 30
0.0
 10
43.06162
 20
3.18712
 30
0.0
 10
43.06162
 20
3.18712
 30
0.0
 10
42.97111
 20
3.0102
 30
0.0
 10
42.84305
 20
2.87648
 30
0.0
 10
42.67745
 20
2.78545
 30
0.0
 10
42.67745
 20
2.78545
 30
0.0
 10
42.51133
 20
2.69442
 30
0.0
 10
42.33287
 20
2.64917
 30
0.0
 10
42.14104
 20
2.64917
 30
0.0
 10
42.14104
 20
2.64917
 30
0.0
 10
41.93275
 20
2.64917
 30
0.0
 10
41.74709
 20
2.69905
 30
0.0
 10
41.58355
 20
2.79985
 30
0.0
 10
41.58355
 20
2.79985
 30
0.0
 10
41.41949
 20
2.90014
 30
0.0
 10
41.29554
 20
3.03746
 30
0.0
 10
41.2112
 20
3.21129
 30
0.0
 10
41.2112
 20
3.21129
 30
0.0
 10
41.12686
 20
3.3846
 30
0.0
 10
41.08468
 20
3.56872
 30
0.0
 10
41.08468
 20
3.76261
 30
0.0
  0
SPLINE
  5
7E
330
1F
100
AcDbEntity
  8
layer 1
 62
   250
100
AcDbSpline
210
0.0
220
0.0
230
1.0
 70
    11
 71
     3
 72
    40
 73
    36
 74
     0
 42
0.0000000001
 43
0.0000000001
 40
0.0
 40
0.0
 40
0.0
 40
0.0
 40
0.1111111111111111
 40
0.1111111111111111
 40
0.1111111111111111
 40
0.1111111111111111
 40
0.2222222222222222
 40
0.2222222222222222
 40
0.2222222222222222
 40
0.2222222222222222
 40
0.3333333333333333
 40
0.3333333333333333
 40
0.3333333333333333
 40
0.3333333333333333
 40
0.4444444444444444
 40
0.4444444444444444
 40
0.4444444444444444
 40
0.4444444444444444
 40
0.5555555555555556
 40
0.5555555555555556
 40
0.5555555555555556
 40
0.5555555555555556
 40
0.6666666666666667
 40
0.6666666666666667
 40
0.6666666666666667
 40
0.6666666666666667
 40
0.7777777777777779
 40
0.7777777777777779
 40
0.7777777777777779
 40
0.7777777777777779
 40
0.8888888888888891
 40
0.8888888888888891
 40
0.8888888888888891
 40
0.8888888888888891
 40
1.0
 40
1.0
 40
1.0
 40
1.0
 10
41.38606
 20
3.75798
 30
0.0
 10
41.38606
 20
3.49158
 30
0.0
 10
41.45755
 20
3.28226
 30
0.0
 10
41.60052
 20
3.129
 30
0.0
 10
41.60052
 20
3.129
 30
0.0
 10
41.74401
 20
2.97574
 30
0.0
 10
41.92349
 20
2.89911
 30
0.0
 10
42.1395
 20
2.89911
 30
0.0
 10
42.1395
 20
2.89911
 30
0.0
 10
42.35961
 20
2.89911
 30
0.0
 10
42.54064
 20
2.97626
 30
0.0
 10
42.68259
 20
3.13106
 30
0.0
 10
42.68259
 20
3.13106
 30
0.0
 10
42.82453
 20
3.28586
 30
0.0
 10
42.89602
 20
3.50546
 30
0.0
 10
42.89602
 20
3.78987
 30
0.0
 10
42.89602
 20
3.78987
 30
0.0
 10
42.89602
 20
3.96935
 30
0.0
 10
42.86516
 20
4.12621
 30
0.0
 10
42.80448
 20
4.26044
 30
0.0
 10
42.80448
 20
4.26044
 30
0.0
 10
42.74379
 20
4.39467
 30
0.0
 10
42.65482
 20
4.49856
 30
0.0
 10
42.53807
 20
4.57262
 30
0.0
 10
42.53807
 20
4.57262
 30
0.0
 10
42.42081
 20
4.64616
 30
0.0
 10
42.28967
 20
4.68319
 30
0.0
 10
42.14413
 20
4.68319
 30
0.0
 10
42.14413
 20
4.68319
 30
0.0
 10
41.93687
 20
4.68319
 30
0.0
 10
41.75892
 20
4.61222
 30
0.0
 10
41.60978
 20
4.46976
 30
0.0
 10
41.60978
 20
4.46976
 30
0.0
 10
41.46063
 20
4.32781
 30
0.0
 10
41.38606
 20
4.09021
 30
0.0
 10
41.38606
 20
3.75798
 30
0.0
  0
SPLINE
  5
7F
330
1F
100
AcDbEntity
  8
layer 1
 62
   250
100
AcDbSpline
210
0.0
220
0.0
230
1.0
 70
    11
 71
     3
 72
    92
 73
    88
 74
     0
 42
0.0000000001
 43
0.0000000001
 40
0.0
 40
0.0
 40
0.0
 40
0.0
 40
0.0454545454545455
 40
0.0454545454545455
 40
0.0454545454545455
 40
0.0454545454545455
 40
0.0909090909090909
 40
0.0909090909090909
 40
0.0909090909090909
 40
0.0909090909090909
 40
0.1363636363636364
 40
0.1363636363636364
 40
0.1363636363636364
 40
0.1363636363636364
 40
0.1818181818181818
 40
0.1818181818181818
 40
0.1818181818181818
 40
0.1818181818181818
 40
0.2272727272727273
 40
0.2272727272727273
 40
0.2272727272727273
 40
0.2272727272727273
 40
0.2727272727272728
 40
0.2727272727272728
 40
0.2727272727272728
 40
0.2727272727272728
 40
0.3181818181818182
 40
0.3181818181818182
 40
0.3181818181818182
 40
0.3181818181818182
 40
0.3636363636363637
 40
0.3636363636363637
 40
0.3636363636363637
 40
0.3636363636363637
 40
0.4090909090909092
 40
0.4090909090909092
 40
0.4090909090909092
 40
0.4090909090909092
 40
0.4545454545454546
 40
0.4545454545454546
 40
0.4545454545454546
 40
0.4545454545454546
 40
0.5000000000000001
 40
0.5000000000000001
 40
0.5000000000000001
 40
0.5000000000000001
 40
0.5454545454545455
 40
0.5454545454545455
 40
0.5454545454545455
 40
0.5454545454545455
 40
0.5909090909090909
 40
0.5909090909090909
 40
0.5909090909090909
 40
0.5909090909090909
 40
0.6363636363636364
 40
0.6363636363636364
 40
0.6363636363636364
 40
0.6363636363636364
 40
0.6818181818181818
 40
0.6818181818181818
 40
0.6818181818181818
 40
0.6818181818181818
 40
0.7272727272727272
 40
0.7272727272727272
 40
0.7272727272727272
 40
0.7272727272727272
 40
0.7727272727272726
 40
0.7727272727272726
 40
0.7727272727272726
 40
0.7727272727272726
 40
0.818181818181818
 40
0.818181818181818
 40
0.818181818181818
 40
0.818181818181818
 40
0.8636363636363634
 40
0.8636363636363634
 40
0.8636363636363634
 40
0.8636363636363634
 40
0.9090909090909088
 40
0.9090909090909088
 40
0.9090909090909088
 40
0.9090909090909088
 40
0.9545454545454543
 40
0.9545454545454543
 40
0.9545454545454543
 40
0.9545454545454543
 40
1.0
 40
1.0
 40
1.0
 40
1.0
 10
44.53198
 20
3.1974
 30
0.0
 10
44.53198
 20
3.1974
 30
0.0
 10
44.79272
 20
3.22157
 30
0.0
 10
44.79272
 20
3.22157
 30
0.0
 10
44.79272
 20
3.22157
 30
0.0
 10
44.81484
 20
3.09917
 30
0.0
 10
44.85701
 20
3.0102
 30
0.0
 10
44.91924
 20
2.95466
 30
0.0
 10
44.91924
 20
2.95466
 30
0.0
 10
44.98147
 20
2.89963
 30
0.0
 10
45.06118
 20
2.87185
 30
0.0
 10
45.1589
 20
2.87185
 30
0.0
 10
45.1589
 20
2.87185
 30
0.0
 10
45.24221
 20
2.87185
 30
0.0
 10
45.31524
 20
2.89088
 30
0.0
 10
45.37799
 20
2.92946
 30
0.0
 10
45.37799
 20
2.92946
 30
0.0
 10
45.44073
 20
2.96751
 30
0.0
 10
45.49216
 20
3.01843
 30
0.0
 10
45.53227
 20
3.0822
 30
0.0
 10
45.53227
 20
3.0822
 30
0.0
 10
45.5729
 20
3.14597
 30
0.0
 10
45.60633
 20
3.23237
 30
0.0
 10
45.63359
 20
3.34037
 30
0.0
 10
45.63359
 20
3.34037
 30
0.0
 10
45.66033
 20
3.44889
 30
0.0
 10
45.67422
 20
3.55946
 30
0.0
 10
45.67422
 20
3.67209
 30
0.0
 10
45.67422
 20
3.67209
 30
0.0
 10
45.67422
 20
3.68392
 30
0.0
 10
45.67371
 20
3.70244
 30
0.0
 10
45.67268
 20
3.72609
 30
0.0
 10
45.67268
 20
3.72609
 30
0.0
 10
45.61816
 20
3.64021
 30
0.0
 10
45.5441
 20
3.56975
 30
0.0
 10
45.4505
 20
3.51626
 30
0.0
 10
45.4505
 20
3.51626
 30
0.0
 10
45.35639
 20
3.46226
 30
0.0
 10
45.25456
 20
3.43552
 30
0.0
 10
45.14553
 20
3.43552
 30
0.0
 10
45.14553
 20
3.43552
 30
0.0
 10
44.96244
 20
3.43552
 30
0.0
 10
44.80764
 20
3.50186
 30
0.0
 10
44.68112
 20
3.63455
 30
0.0
 10
44.68112
 20
3.63455
 30
0.0
 10
44.55461
 20
3.76724
 30
0.0
 10
44.49135
 20
3.94158
 30
0.0
 10
44.49135
 20
4.15861
 30
0.0
 10
44.49135
 20
4.15861
 30
0.0
 10
44.49135
 20
4.38284
 30
0.0
 10
44.55718
 20
4.56285
 30
0.0
 10
44.68935
 20
4.69965
 30
0.0
 10
44.68935
 20
4.69965
 30
0.0
 10
44.82152
 20
4.83645
 30
0.0
 10
44.98713
 20
4.90485
 30
0.0
 10
45.18616
 20
4.90485
 30
0.0
 10
45.18616
 20
4.90485
 30
0.0
 10
45.32964
 20
4.90485
 30
0.0
 10
45.46079
 20
4.86576
 30
0.0
 10
45.5801
 20
4.78862
 30
0.0
 10
45.5801
 20
4.78862
 30
0.0
 10
45.69891
 20
4.71148
 30
0.0
 10
45.78942
 20
4.6009
 30
0.0
 10
45.85114
 20
4.45793
 30
0.0
 10
45.85114
 20
4.45793
 30
0.0
 10
45.91285
 20
4.31496
 30
0.0
 10
45.94371
 20
4.1077
 30
0.0
 10
45.94371
 20
3.83615
 30
0.0
 10
45.94371
 20
3.83615
 30
0.0
 10
45.94371
 20
3.55432
 30
0.0
 10
45.91337
 20
3.32957
 30
0.0
 10
45.85216
 20
3.16192
 30
0.0
 10
45.85216
 20
3.16192
 30
0.0
 10
45.79045
 20
2.99477
 30
0.0
 10
45.69942
 20
2.86774
 30
0.0
 10
45.57856
 20
2.78031
 30
0.0
 10
45.57856
 20
2.78031
 30
0.0
 10
45.45719
 20
2.69288
 30
0.0
 10
45.31576
 20
2.64917
 30
0.0
 10
45.15273
 20
2.64917
 30
0.0
 10
45.15273
 20
2.64917
 30
0.0
 10
44.97993
 20
2.64917
 30
0.0
 10
44.83901
 20
2.697
 30
0.0
 10
44.72947
 20
2.79317
 30
0.0
 10
44.72947
 20
2.79317
 30
0.0
 10
44.61992
 20
2.88883
 30
0.0
 10
44.55409
 20
3.02357
 30
0.0
 10
44.53198
 20
3.1974
 30
0.0
  0
SPLINE
  5
80
330
1F
100
AcDbEntity
  8
layer 1
 62
   250
100
AcDbSpline
210
0.0
220
0.0
230
1.0
 70
    11
 71
     3
 72
    36
 73
    32
 74
     0
 42
0.0000000001
 43
0.0000000001
 40
0.0
 40
0.0
 40
0.0
 40
0.0
 40
0.125
 40
0.125
 40
0.125
 40
0.125
 40
0.25
 40
0.25
 40
0.25
 40
0.25
 40
0.375
 40
0.375
 40
0.375
 40
0.375
 40
0.5
 40
0.5
 40
0.5
 40
0.5
 40
0.625
 40
0.625
 40
0.625
 40
0.625
 40
0.75
 40
0.75
 40
0.75
 40
0.75
 40
0.875
 40
0.875
 40
0.875
 40
0.875
 40
1.0
 40
1.0
 40
1.0
 40
1.0
 10
45.64233
 20
4.1725
 30
0.0
 10
45.64233
 20
4.32781
 30
0.0
 10
45.60119
 20
4.45176
 30
0.0
 10
45.51839
 20
4.54279
 30
0.0
 10
45.51839
 20
4.54279
 30
0.0
 10
45.43507
 20
4.63433
 30
0.0
 10
45.33582
 20
4.6801
 30
0.0
 10
45.21907
 20
4.6801
 30
0.0
 10
45.21907
 20
4.6801
 30
0.0
 10
45.09873
 20
4.6801
 30
0.0
 10
44.99381
 20
4.63073
 30
0.0
 10
44.90432
 20
4.5325
 30
0.0
 10
44.90432
 20
4.5325
 30
0.0
 10
44.81484
 20
4.43376
 30
0.0
 10
44.77009
 20
4.30621
 30
0.0
 10
44.77009
 20
4.14987
 30
0.0
 10
44.77009
 20
4.14987
 30
0.0
 10
44.77009
 20
4.00895
 30
0.0
 10
44.81278
 20
3.89478
 30
0.0
 10
44.89764
 20
3.80684
 30
0.0
 10
44.89764
 20
3.80684
 30
0.0
 10
44.9825
 20
3.71889
 30
0.0
 10
45.0869
 20
3.67518
 30
0.0
 10
45.21136
 20
3.67518
 30
0.0
 10
45.21136
 20
3.67518
 30
0.0
 10
45.33736
 20
3.67518
 30
0.0
 10
45.44022
 20
3.71889
 30
0.0
 10
45.52096
 20
3.80684
 30
0.0
 10
45.52096
 20
3.80684
 30
0.0
 10
45.60222
 20
3.89478
 30
0.0
 10
45.64233
 20
4.01667
 30
0.0
 10
45.64233
 20
4.1725
 30
0.0
  0
SPLINE
  5
81
330
1F
100
AcDbEntity
  8
layer 1
 62
   250
100
AcDbSpline
210
0.0
220
0.0
230
1.0
 70
    11
 71
     3
 72
    80
 73
    76
 74
     0
 42
0.0000000001
 43
0.0000000001
 40
0.0
 40
0.0
 40
0.0
 40
0.0
 40
0.0526315789473684
 40
0.0526315789473684
 40
0.0526315789473684
 40
0.0526315789473684
 40
0.1052631578947368
 40
0.1052631578947368
 40
0.1052631578947368
 40
0.1052631578947368
 40
0.1578947368421053
 40
0.1578947368421053
 40
0.1578947368421053
 40
0.1578947368421053
 40
0.2105263157894737
 40
0.2105263157894737
 40
0.2105263157894737
 40
0.2105263157894737
 40
0.2631578947368421
 40
0.2631578947368421
 40
0.2631578947368421
 40
0.2631578947368421
 40
0.3157894736842105
 40
0.3157894736842105
 40
0.3157894736842105
 40
0.3157894736842105
 40
0.3684210526315789
 40
0.3684210526315789
 40
0.3684210526315789
 40
0.3684210526315789
 40
0.4210526315789473
 40
0.4210526315789473
 40
0.4210526315789473
 40
0.4210526315789473
 40
0.4736842105263158
 40
0.4736842105263158
 40
0.4736842105263158
 40
0.4736842105263158
 40
0.5263157894736842
 40
0.5263157894736842
 40
0.5263157894736842
 40
0.5263157894736842
 40
0.5789473684210527
 40
0.5789473684210527
 40
0.5789473684210527
 40
0.5789473684210527
 40
0.631578947368421
 40
0.631578947368421
 40
0.631578947368421
 40
0.631578947368421
 40
0.6842105263157894
 40
0.6842105263157894
 40
0.6842105263157894
 40
0.6842105263157894
 40
0.7368421052631577
 40
0.7368421052631577
 40
0.7368421052631577
 40
0.7368421052631577
 40
0.7894736842105261
 40
0.7894736842105261
 40
0.7894736842105261
 40
0.7894736842105261
 40
0.8421052631578945
 40
0.8421052631578945
 40
0.8421052631578945
 40
0.8421052631578945
 40
0.8947368421052628
 40
0.8947368421052628
 40
0.8947368421052628
 40
0.8947368421052628
 40
0.9473684210526312
 40
0.9473684210526312
 40
0.9473684210526312
 40
0.9473684210526312
 40
1.0
 40
1.0
 40
1.0
 40
1.0
 10
47.7861
 20
4.35456
 30
0.0
 10
47.7861
 20
4.35456
 30
0.0
 10
47.51661
 20
4.33347
 30
0.0
 10
47.51661
 20
4.33347
 30
0.0
 10
47.51661
 20
4.33347
 30
0.0
 10
47.49244
 20
4.43993
 30
0.0
 10
47.4585
 20
4.51759
 30
0.0
 10
47.41427
 20
4.56542
 30
0.0
 10
47.41427
 20
4.56542
 30
0.0
 10
47.34072
 20
4.64308
 30
0.0
 10
47.25021
 20
4.68165
 30
0.0
 10
47.14272
 20
4.68165
 30
0.0
 10
47.14272
 20
4.68165
 30
0.0
 10
47.05632
 20
4.68165
 30
0.0
 10
46.98072
 20
4.65748
 30
0.0
 10
46.9154
 20
4.60913
 30
0.0
 10
46.9154
 20
4.60913
 30
0.0
 10
46.83003
 20
4.5469
 30
0.0
 10
46.76266
 20
4.45587
 30
0.0
 10
46.71329
 20
4.33656
 30
0.0
 10
46.71329
 20
4.33656
 30
0.0
 10
46.66443
 20
4.21724
 30
0.0
 10
46.63872
 20
4.04701
 30
0.0
 10
46.63666
 20
3.82587
 30
0.0
 10
46.63666
 20
3.82587
 30
0.0
 10
46.70197
 20
3.92512
 30
0.0
 10
46.78169
 20
3.99918
 30
0.0
 10
46.87632
 20
4.04753
 30
0.0
 10
46.87632
 20
4.04753
 30
0.0
 10
46.97043
 20
4.09535
 30
0.0
 10
47.06969
 20
4.11953
 30
0.0
 10
47.17306
 20
4.11953
 30
0.0
 10
47.17306
 20
4.11953
 30
0.0
 10
47.3541
 20
4.11953
 30
0.0
 10
47.50787
 20
4.05318
 30
0.0
 10
47.6349
 20
3.91998
 30
0.0
 10
47.6349
 20
3.91998
 30
0.0
 10
47.76193
 20
3.78678
 30
0.0
 10
47.8257
 20
3.61501
 30
0.0
 10
47.8257
 20
3.40415
 30
0.0
 10
47.8257
 20
3.40415
 30
0.0
 10
47.8257
 20
3.26529
 30
0.0
 10
47.79536
 20
3.13672
 30
0.0
 10
47.7357
 20
3.0174
 30
0.0
 10
47.7357
 20
3.0174
 30
0.0
 10
47.67604
 20
2.8986
 30
0.0
 10
47.59376
 20
2.80705
 30
0.0
 10
47.48935
 20
2.7438
 30
0.0
 10
47.48935
 20
2.7438
 30
0.0
 10
47.38495
 20
2.68054
 30
0.0
 10
47.26667
 20
2.64917
 30
0.0
 10
47.13398
 20
2.64917
 30
0.0
 10
47.13398
 20
2.64917
 30
0.0
 10
46.90769
 20
2.64917
 30
0.0
 10
46.72357
 20
2.73197
 30
0.0
 10
46.58112
 20
2.8986
 30
0.0
 10
46.58112
 20
2.8986
 30
0.0
 10
46.43814
 20
3.06471
 30
0.0
 10
46.36717
 20
3.33883
 30
0.0
 10
46.36717
 20
3.72044
 30
0.0
 10
46.36717
 20
3.72044
 30
0.0
 10
46.36717
 20
4.1473
 30
0.0
 10
46.44586
 20
4.45742
 30
0.0
 10
46.60374
 20
4.6513
 30
0.0
 10
46.60374
 20
4.6513
 30
0.0
 10
46.74106
 20
4.81999
 30
0.0
 10
46.9262
 20
4.90485
 30
0.0
 10
47.15969
 20
4.90485
 30
0.0
 10
47.15969
 20
4.90485
 30
0.0
 10
47.33301
 20
4.90485
 30
0.0
 10
47.47547
 20
4.85599
 30
0.0
 10
47.58656
 20
4.75828
 30
0.0
 10
47.58656
 20
4.75828
 30
0.0
 10
47.69764
 20
4.66108
 30
0.0
 10
47.76399
 20
4.52633
 30
0.0
 10
47.7861
 20
4.35456
 30
0.0
  0
SPLINE
  5
82
330
1F
100
AcDbEntity
  8
layer 1
 62
   250
100
AcDbSpline
210
0.0
220
0.0
230
1.0
 70
    11
 71
     3
 72
    40
 73
    36
 74
     0
 42
0.0000000001
 43
0.0000000001
 40
0.0
 40
0.0
 40
0.0
 40
0.0
 40
0.1111111111111111
 40
0.1111111111111111
 40
0.1111111111111111
 40
0.1111111111111111
 40
0.2222222222222222
 40
0.2222222222222222
 40
0.2222222222222222
 40
0.2222222222222222
 40
0.3333333333333333
 40
0.3333333333333333
 40
0.3333333333333333
 40
0.3333333333333333
 40
0.4444444444444444
 40
0.4444444444444444
 40
0.4444444444444444
 40
0.4444444444444444
 40
0.5555555555555556
 40
0.5555555555555556
 40
0.5555555555555556
 40
0.5555555555555556
 40
0.6666666666666667
 40
0.6666666666666667
 40
0.6666666666666667
 40
0.6666666666666667
 40
0.7777777777777779
 40
0.7777777777777779
 40
0.7777777777777779
 40
0.7777777777777779
 40
0.8888888888888891
 40
0.8888888888888891
 40
0.8888888888888891
 40
0.8888888888888891
 40
1.0
 40
1.0
 40
1.0
 40
1.0
 10
46.67883
 20
3.4026
 30
0.0
 10
46.67883
 20
3.309
 30
0.0
 10
46.69889
 20
3.21952
 30
0.0
 10
46.73849
 20
3.13414
 30
0.0
 10
46.73849
 20
3.13414
 30
0.0
 10
46.77809
 20
3.04877
 30
0.0
 10
46.83363
 20
2.98397
 30
0.0
 10
46.9046
 20
2.93923
 30
0.0
 10
46.9046
 20
2.93923
 30
0.0
 10
46.97609
 20
2.89448
 30
0.0
 10
47.05118
 20
2.87185
 30
0.0
 10
47.12935
 20
2.87185
 30
0.0
 10
47.12935
 20
2.87185
 30
0.0
 10
47.24404
 20
2.87185
 30
0.0
 10
47.34227
 20
2.91814
 30
0.0
 10
47.42455
 20
3.01071
 30
0.0
 10
47.42455
 20
3.01071
 30
0.0
 10
47.50684
 20
3.10329
 30
0.0
 10
47.54798
 20
3.22877
 30
0.0
 10
47.54798
 20
3.38718
 30
0.0
 10
47.54798
 20
3.38718
 30
0.0
 10
47.54798
 20
3.53992
 30
0.0
 10
47.50735
 20
3.66026
 30
0.0
 10
47.4261
 20
3.74821
 30
0.0
 10
47.4261
 20
3.74821
 30
0.0
 10
47.34484
 20
3.83615
 30
0.0
 10
47.24249
 20
3.87987
 30
0.0
 10
47.11906
 20
3.87987
 30
0.0
 10
47.11906
 20
3.87987
 30
0.0
 10
46.99615
 20
3.87987
 30
0.0
 10
46.89226
 20
3.83615
 30
0.0
 10
46.80689
 20
3.74821
 30
0.0
 10
46.80689
 20
3.74821
 30
0.0
 10
46.72152
 20
3.66026
 30
0.0
 10
46.67883
 20
3.54506
 30
0.0
 10
46.67883
 20
3.4026
 30
0.0
  0
SPLINE
  5
83
330
1F
100
AcDbEntity
  8
layer 1
 62
   250
100
AcDbSpline
210
0.0
220
0.0
230
1.0
 70
    11
 71
     3
 72
    52
 73
    48
 74
     0
 42
0.0000000001
 43
0.0000000001
 40
0.0
 40
0.0
 40
0.0
 40
0.0
 40
0.0833333333333333
 40
0.0833333333333333
 40
0.0833333333333333
 40
0.0833333333333333
 40
0.1666666666666667
 40
0.1666666666666667
 40
0.1666666666666667
 40
0.1666666666666667
 40
0.25
 40
0.25
 40
0.25
 40
0.25
 40
0.3333333333333333
 40
0.3333333333333333
 40
0.3333333333333333
 40
0.3333333333333333
 40
0.4166666666666666
 40
0.4166666666666666
 40
0.4166666666666666
 40
0.4166666666666666
 40
0.4999999999999999
 40
0.4999999999999999
 40
0.4999999999999999
 40
0.4999999999999999
 40
0.5833333333333333
 40
0.5833333333333333
 40
0.5833333333333333
 40
0.5833333333333333
 40
0.6666666666666666
 40
0.6666666666666666
 40
0.6666666666666666
 40
0.6666666666666666
 40
0.75
 40
0.75
 40
0.75
 40
0.75
 40
0.8333333333333334
 40
0.8333333333333334
 40
0.8333333333333334
 40
0.8333333333333334
 40
0.9166666666666667
 40
0.9166666666666667
 40
0.9166666666666667
 40
0.9166666666666667
 40
1.0
 40
1.0
 40
1.0
 40
1.0
 10
48.26665
 20
3.77598
 30
0.0
 10
48.26665
 20
4.03724
 30
0.0
 10
48.29339
 20
4.24759
 30
0.0
 10
48.34739
 20
4.4065
 30
0.0
 10
48.34739
 20
4.4065
 30
0.0
 10
48.40088
 20
4.56593
 30
0.0
 10
48.48111
 20
4.68885
 30
0.0
 10
48.58705
 20
4.77525
 30
0.0
 10
48.58705
 20
4.77525
 30
0.0
 10
48.693
 20
4.86165
 30
0.0
 10
48.8262
 20
4.90485
 30
0.0
 10
48.98666
 20
4.90485
 30
0.0
 10
48.98666
 20
4.90485
 30
0.0
 10
49.10546
 20
4.90485
 30
0.0
 10
49.20935
 20
4.88068
 30
0.0
 10
49.29883
 20
4.83285
 30
0.0
 10
49.29883
 20
4.83285
 30
0.0
 10
49.38832
 20
4.78553
 30
0.0
 10
49.46186
 20
4.71662
 30
0.0
 10
49.52049
 20
4.62662
 30
0.0
 10
49.52049
 20
4.62662
 30
0.0
 10
49.57861
 20
4.53662
 30
0.0
 10
49.62438
 20
4.42707
 30
0.0
 10
49.65729
 20
4.29799
 30
0.0
 10
49.65729
 20
4.29799
 30
0.0
 10
49.69072
 20
4.1689
 30
0.0
 10
49.70718
 20
3.99507
 30
0.0
 10
49.70718
 20
3.77598
 30
0.0
 10
49.70718
 20
3.77598
 30
0.0
 10
49.70718
 20
3.51678
 30
0.0
 10
49.68044
 20
3.30797
 30
0.0
 10
49.62746
 20
3.14854
 30
0.0
 10
49.62746
 20
3.14854
 30
0.0
 10
49.57398
 20
2.98911
 30
0.0
 10
49.49426
 20
2.8662
 30
0.0
 10
49.38832
 20
2.77928
 30
0.0
 10
49.38832
 20
2.77928
 30
0.0
 10
49.28237
 20
2.69237
 30
0.0
 10
49.14866
 20
2.64917
 30
0.0
 10
48.98666
 20
2.64917
 30
0.0
 10
48.98666
 20
2.64917
 30
0.0
 10
48.77374
 20
2.64917
 30
0.0
 10
48.6066
 20
2.72528
 30
0.0
 10
48.48522
 20
2.87803
 30
0.0
 10
48.48522
 20
2.87803
 30
0.0
 10
48.33968
 20
3.06163
 30
0.0
 10
48.26665
 20
3.36146
 30
0.0
 10
48.26665
 20
3.77598
 30
0.0
  0
SPLINE
  5
84
330
1F
100
AcDbEntity
  8
layer 1
 62
   250
100
AcDbSpline
210
0.0
220
0.0
230
1.0
 70
    11
 71
     3
 72
    36
 73
    32
 74
     0
 42
0.0000000001
 43
0.0000000001
 40
0.0
 40
0.0
 40
0.0
 40
0.0
 40
0.125
 40
0.125
 40
0.125
 40
0.125
 40
0.25
 40
0.25
 40
0.25
 40
0.25
 40
0.375
 40
0.375
 40
0.375
 40
0.375
 40
0.5
 40
0.5
 40
0.5
 40
0.5
 40
0.625
 40
0.625
 40
0.625
 40
0.625
 40
0.75
 40
0.75
 40
0.75
 40
0.75
 40
0.875
 40
0.875
 40
0.875
 40
0.875
 40
1.0
 40
1.0
 40
1.0
 40
1.0
 10
48.54539
 20
3.77598
 30
0.0
 10
48.54539
 20
3.4134
 30
0.0
 10
48.58808
 20
3.1722
 30
0.0
 10
48.67294
 20
3.05186
 30
0.0
 10
48.67294
 20
3.05186
 30
0.0
 10
48.7578
 20
2.93203
 30
0.0
 10
48.8622
 20
2.87185
 30
0.0
 10
48.98666
 20
2.87185
 30
0.0
 10
48.98666
 20
2.87185
 30
0.0
 10
49.11163
 20
2.87185
 30
0.0
 10
49.21603
 20
2.93254
 30
0.0
 10
49.30089
 20
3.05289
 30
0.0
 10
49.30089
 20
3.05289
 30
0.0
 10
49.38575
 20
3.17323
 30
0.0
 10
49.42843
 20
3.41443
 30
0.0
 10
49.42843
 20
3.77598
 30
0.0
 10
49.42843
 20
3.77598
 30
0.0
 10
49.42843
 20
4.13958
 30
0.0
 10
49.38575
 20
4.3813
 30
0.0
 10
49.30089
 20
4.50062
 30
0.0
 10
49.30089
 20
4.50062
 30
0.0
 10
49.21603
 20
4.62045
 30
0.0
 10
49.1106
 20
4.6801
 30
0.0
 10
48.98409
 20
4.6801
 30
0.0
 10
48.98409
 20
4.6801
 30
0.0
 10
48.85911
 20
4.6801
 30
0.0
 10
48.75985
 20
4.62713
 30
0.0
 10
48.68528
 20
4.5217
 30
0.0
 10
48.68528
 20
4.5217
 30
0.0
 10
48.5922
 20
4.38747
 30
0.0
 10
48.54539
 20
4.13856
 30
0.0
 10
48.54539
 20
3.77598
 30
0.0
  0
SPLINE
  5
85
330
1F
100
AcDbEntity
  8
layer 1
 62
   250
100
AcDbSpline
210
0.0
220
0.0
230
1.0
 70
    11
 71
     3
 72
    92
 73
    88
 74
     0
 42
0.0000000001
 43
0.0000000001
 40
0.0
 40
0.0
 40
0.0
 40
0.0
 40
0.0454545454545455
 40
0.0454545454545455
 40
0.0454545454545455
 40
0.0454545454545455
 40
0.0909090909090909
 40
0.0909090909090909
 40
0.0909090909090909
 40
0.0909090909090909
 40
0.1363636363636364
 40
0.1363636363636364
 40
0.1363636363636364
 40
0.1363636363636364
 40
0.1818181818181818
 40
0.1818181818181818
 40
0.1818181818181818
 40
0.1818181818181818
 40
0.2272727272727273
 40
0.2272727272727273
 40
0.2272727272727273
 40
0.2272727272727273
 40
0.2727272727272728
 40
0.2727272727272728
 40
0.2727272727272728
 40
0.2727272727272728
 40
0.3181818181818182
 40
0.3181818181818182
 40
0.3181818181818182
 40
0.3181818181818182
 40
0.3636363636363637
 40
0.3636363636363637
 40
0.3636363636363637
 40
0.3636363636363637
 40
0.4090909090909092
 40
0.4090909090909092
 40
0.4090909090909092
 40
0.4090909090909092
 40
0.4545454545454546
 40
0.4545454545454546
 40
0.4545454545454546
 40
0.4545454545454546
 40
0.5000000000000001
 40
0.5000000000000001
 40
0.5000000000000001
 40
0.5000000000000001
 40
0.5454545454545455
 40
0.5454545454545455
 40
0.5454545454545455
 40
0.5454545454545455
 40
0.5909090909090909
 40
0.5909090909090909
 40
0.5909090909090909
 40
0.5909090909090909
 40
0.6363636363636364
 40
0.6363636363636364
 40
0.6363636363636364
 40
0.6363636363636364
 40
0.6818181818181818
 40
0.6818181818181818
 40
0.6818181818181818
 40
0.6818181818181818
 40
0.7272727272727272
 40
0.7272727272727272
 40
0.7272727272727272
 40
0.7272727272727272
 40
0.7727272727272726
 40
0.7727272727272726
 40
0.7727272727272726
 40
0.7727272727272726
 40
0.818181818181818
 40
0.818181818181818
 40
0.818181818181818
 40
0.818181818181818
 40
0.8636363636363634
 40
0.8636363636363634
 40
0.8636363636363634
 40
0.8636363636363634
 40
0.9090909090909088
 40
0.9090909090909088
 40
0.9090909090909088
 40
0.9090909090909088
 40
0.9545454545454543
 40
0.9545454545454543
 40
0.9545454545454543
 40
0.9545454545454543
 40
1.0
 40
1.0
 40
1.0
 40
1.0
 10
50.1543
 20
3.26529
 30
0.0
 10
50.1543
 20
3.26529
 30
0.0
 10
50.43922
 20
3.28946
 30
0.0
 10
50.43922
 20
3.28946
 30
0.0
 10
50.43922
 20
3.28946
 30
0.0
 10
50.4603
 20
3.1506
 30
0.0
 10
50.50916
 20
3.04671
 30
0.0
 10
50.58579
 20
2.97677
 30
0.0
 10
50.58579
 20
2.97677
 30
0.0
 10
50.66293
 20
2.90683
 30
0.0
 10
50.75551
 20
2.87185
 30
0.0
 10
50.86402
 20
2.87185
 30
0.0
 10
50.86402
 20
2.87185
 30
0.0
 10
50.99465
 20
2.87185
 30
0.0
 10
51.10522
 20
2.92123
 30
0.0
 10
51.19522
 20
3.01946
 30
0.0
 10
51.19522
 20
3.01946
 30
0.0
 10
51.28574
 20
3.1182
 30
0.0
 10
51.331
 20
3.24883
 30
0.0
 10
51.331
 20
3.41135
 30
0.0
 10
51.331
 20
3.41135
 30
0.0
 10
51.331
 20
3.56615
 30
0.0
 10
51.2878
 20
3.68804
 30
0.0
 10
51.20088
 20
3.77752
 30
0.0
 10
51.20088
 20
3.77752
 30
0.0
 10
51.11397
 20
3.86701
 30
0.0
 10
51.00031
 20
3.91175
 30
0.0
 10
50.85939
 20
3.91175
 30
0.0
 10
50.85939
 20
3.91175
 30
0.0
 10
50.77196
 20
3.91175
 30
0.0
 10
50.69328
 20
3.8917
 30
0.0
 10
50.62282
 20
3.85209
 30
0.0
 10
50.62282
 20
3.85209
 30
0.0
 10
50.55236
 20
3.81249
 30
0.0
 10
50.49733
 20
3.76107
 30
0.0
 10
50.45722
 20
3.69781
 30
0.0
 10
50.45722
 20
3.69781
 30
0.0
 10
50.45722
 20
3.69781
 30
0.0
 10
50.20264
 20
3.73072
 30
0.0
 10
50.20264
 20
3.73072
 30
0.0
 10
50.20264
 20
3.73072
 30
0.0
 10
50.20264
 20
3.73072
 30
0.0
 10
50.41659
 20
4.86525
 30
0.0
 10
50.41659
 20
4.86525
 30
0.0
 10
50.41659
 20
4.86525
 30
0.0
 10
50.41659
 20
4.86525
 30
0.0
 10
51.51511
 20
4.86525
 30
0.0
 10
51.51511
 20
4.86525
 30
0.0
 10
51.51511
 20
4.86525
 30
0.0
 10
51.51511
 20
4.86525
 30
0.0
 10
51.51511
 20
4.60605
 30
0.0
 10
51.51511
 20
4.60605
 30
0.0
 10
51.51511
 20
4.60605
 30
0.0
 10
51.51511
 20
4.60605
 30
0.0
 10
50.63362
 20
4.60605
 30
0.0
 10
50.63362
 20
4.60605
 30
0.0
 10
50.63362
 20
4.60605
 30
0.0
 10
50.63362
 20
4.60605
 30
0.0
 10
50.5143
 20
4.01255
 30
0.0
 10
50.5143
 20
4.01255
 30
0.0
 10
50.5143
 20
4.01255
 30
0.0
 10
50.64699
 20
4.10513
 30
0.0
 10
50.78636
 20
4.15141
 30
0.0
 10
50.93191
 20
4.15141
 30
0.0
 10
50.93191
 20
4.15141
 30
0.0
 10
51.12477
 20
4.15141
 30
0.0
 10
51.28728
 20
4.08455
 30
0.0
 10
51.41997
 20
3.95084
 30
0.0
 10
51.41997
 20
3.95084
 30
0.0
 10
51.55266
 20
3.81712
 30
0.0
 10
51.619
 20
3.64535
 30
0.0
 10
51.619
 20
3.43552
 30
0.0
 10
51.619
 20
3.43552
 30
0.0
 10
51.619
 20
3.23546
 30
0.0
 10
51.56037
 20
3.06266
 30
0.0
 10
51.44414
 20
2.91711
 30
0.0
 10
51.44414
 20
2.91711
 30
0.0
 10
51.3022
 20
2.73865
 30
0.0
 10
51.10882
 20
2.64917
 30
0.0
 10
50.86402
 20
2.64917
 30
0.0
 10
50.86402
 20
2.64917
 30
0.0
 10
50.66293
 20
2.64917
 30
0.0
 10
50.49887
 20
2.70522
 30
0.0
 10
50.37184
 20
2.81785
 30
0.0
 10
50.37184
 20
2.81785
 30
0.0
 10
50.24481
 20
2.93048
 30
0.0
 10
50.1723
 20
3.07963
 30
0.0
 10
50.1543
 20
3.26529
 30
0.0
  0
ENDSEC
  0
SECTION
  2
OBJECTS
  0
DICTIONARY
  5
C
330
0
100
AcDbDictionary
281
     1
  3
ACAD_GROUP
350
D
  3
ACAD_LAYOUT
350
1A
  3
ACAD_MLEADERSTYLE
350
87
  3
ACAD_MLINESTYLE
350
17
  3
ACAD_PLOTSETTINGS
350
19
  3
ACAD_PLOTSTYLENAME
350
E
  3
ACAD_SCALELIST
350
3B
  3
ACAD_TABLESTYLE
350
86
  3
ACAD_VISUALSTYLE
350
2A
  0
DICTIONARY
  5
D
102
{ACAD_REACTORS
330
C
102
}
330
C
100
AcDbDictionary
281
     1
  0
DICTIONARY
  5
1A
102
{ACAD_REACTORS
330
C
102
}
330
C
100
AcDbDictionary
281
     1
  3
Layout1
350
1E
  3
Layout2
350
26
  3
Model
350
22
  0
DICTIONARY
  5
87
102
{ACAD_REACTORS
330
C
102
}
330
C
100
AcDbDictionary
281
     1
  0
DICTIONARY
  5
17
102
{ACAD_REACTORS
330
C
102
}
330
C
100
AcDbDictionary
281
     1
  3
Standard
350
18
  0
DICTIONARY
  5
19
102
{ACAD_REACTORS
330
C
102
}
330
C
100
AcDbDictionary
281
     1
  0
ACDBDICTIONARYWDFLT
  5
E
102
{ACAD_REACTORS
330
C
102
}
330
C
100
AcDbDictionary
281
     1
  3
Normal
350
F
100
AcDbDictionaryWithDefault
340
F
  0
DICTIONARY
  5
3B
102
{ACAD_REACTORS
330
C
102
}
330
C
100
AcDbDictionary
281
     1
  3
A0
350
3C
  3
A1
350
3D
  3
A2
350
3E
  3
A3
350
3F
  3
A4
350
40
  3
A5
350
41
  3
A6
350
42
  3
A7
350
43
  3
A8
350
44
  3
A9
350
45
  3
B0
350
46
  3
B1
350
47
  3
B2
350
48
  3
B3
350
49
  3
B4
350
4A
  3
B5
350
4B
  3
B6
350
4C
  3
B7
350
4D
  3
B8
350
4E
  3
B9
350
4F
  3
C0
350
50
  3
C1
350
51
  3
C2
350
52
  3
C3
350
53
  3
C4
350
54
  3
C5
350
55
  3
C6
350
56
  3
C7
350
57
  3
C8
350
58
  3
C9
350
59
  3
D0
350
5A
  3
D1
350
5B
  3
D2
350
5C
  0
DICTIONARY
  5
86
102
{ACAD_REACTORS
330
C
102
}
330
C
100
AcDbDictionary
281
     1
  0
DICTIONARY
  5
2A
102
{ACAD_REACTORS
330
C
102
}
330
C
100
AcDbDictionary
281
     1
  3
2dWireframe
350
2F
  3
3D Hidden
350
31
  3
3dWireframe
350
30
  3
Basic
350
32
  3
Brighten
350
36
  3
ColorChange
350
3A
  3
Conceptual
350
34
  3
Dim
350
35
  3
Facepattern
350
39
  3
Flat
350
2B
  3
FlatWithEdges
350
2C
  3
Gouraud
350
2D
  3
GouraudWithEdges
350
2E
  3
Linepattern
350
38
  3
Realistic
350
33
  3
Thicken
350
37
  0
LAYOUT
  5
1E
102
{ACAD_REACTORS
330
1A
102
}
330
1A
100
AcDbPlotSettings
  1

  2
none_device
  4

  6

 40
0.0
 41
0.0
 42
0.0
 43
0.0
 44
0.0
 45
0.0
 46
0.0
 47
0.0
 48
0.0
 49
0.0
140
0.0
141
0.0
142
1.0
143
1.0
 70
   688
 72
     0
 73
     0
 74
     5
  7

 75
    16
 76
     0
 77
     2
 78
   300
147
1.0
148
0.0
149
0.0
100
AcDbLayout
  1
Layout1
 70
     1
 71
     1
 10
0.0
 20
0.0
 11
12.0
 21
9.0
 12
0.0
 22
0.0
 32
0.0
 14
1.000000000000000E+20
 24
1.000000000000000E+20
 34
1.000000000000000E+20
 15
-1.000000000000000E+20
 25
-1.000000000000000E+20
 35
-1.000000000000000E+20
146
0.0
 13
0.0
 23
0.0
 33
0.0
 16
1.0
 26
0.0
 36
0.0
 17
0.0
 27
1.0
 37
0.0
 76
     0
330
1B
  0
LAYOUT
  5
26
102
{ACAD_REACTORS
330
1A
102
}
330
1A
100
AcDbPlotSettings
  1

  2
none_device
  4

  6

 40
0.0
 41
0.0
 42
0.0
 43
0.0
 44
0.0
 45
0.0
 46
0.0
 47
0.0
 48
0.0
 49
0.0
140
0.0
141
0.0
142
1.0
143
1.0
 70
   688
 72
     0
 73
     0
 74
     5
  7

 75
    16
 76
     0
 77
     2
 78
   300
147
1.0
148
0.0
149
0.0
100
AcDbLayout
  1
Layout2
 70
     1
 71
     2
 10
0.0
 20
0.0
 11
0.0
 21
0.0
 12
0.0
 22
0.0
 32
0.0
 14
0.0
 24
0.0
 34
0.0
 15
0.0
 25
0.0
 35
0.0
146
0.0
 13
0.0
 23
0.0
 33
0.0
 16
1.0
 26
0.0
 36
0.0
 17
0.0
 27
1.0
 37
0.0
 76
     0
330
23
  0
LAYOUT
  5
22
102
{ACAD_REACTORS
330
1A
102
}
330
1A
100
AcDbPlotSettings
  1

  2
none_device
  4

  6

 40
0.0
 41
0.0
 42
0.0
 43
0.0
 44
0.0
 45
0.0
 46
0.0
 47
0.0
 48
0.0
 49
0.0
140
0.0
141
0.0
142
1.0
143
1.0
 70
  1712
 72
     0
 73
     0
 74
     0
  7

 75
     0
 76
     0
 77
     2
 78
   300
147
1.0
148
0.0
149
0.0
100
AcDbLayout
  1
Model
 70
     1
 71
     0
 10
0.0
 20
0.0
 11
12.0
 21
9.0
 12
0.0
 22
0.0
 32
0.0
 14
19.41014
 24
-10.3826
 34
0.0
 15
66.70315
 25
23.83902
 35
0.0
146
0.0
 13
0.0
 23
0.0
 33
0.0
 16
1.0
 26
0.0
 36
0.0
 17
0.0
 27
1.0
 37
0.0
 76
     0
330
1F
331
29
  0
MLINESTYLE
  5
18
102
{ACAD_REACTORS
330
17
102
}
330
17
100
AcDbMlineStyle
  2
Standard
 70
     0
  3

 62
   256
 51
90.0
 52
90.0
 71
     2
 49
0.5
 62
   256
  6
BYLAYER
 49
-0.5
 62
   256
  6
BYLAYER
  0
ACDBPLACEHOLDER
  5
F
102
{ACAD_REACTORS
330
E
102
}
330
E
  0
SCALE
  5
3C
102
{ACAD_REACTORS
330
3B
102
}
330
3B
100
AcDbScale
 70
     0
300
1:1
140
1.0
141
1.0
290
     1
  0
SCALE
  5
3D
102
{ACAD_REACTORS
330
3B
102
}
330
3B
100
AcDbScale
 70
     0
300
1:2
140
1.0
141
2.0
290
     0
  0
SCALE
  5
3E
102
{ACAD_REACTORS
330
3B
102
}
330
3B
100
AcDbScale
 70
     0
300
1:4
140
1.0
141
4.0
290
     0
  0
SCALE
  5
3F
102
{ACAD_REACTORS
330
3B
102
}
330
3B
100
AcDbScale
 70
     0
300
1:5
140
1.0
141
5.0
290
     0
  0
SCALE
  5
40
102
{ACAD_REACTORS
330
3B
102
}
330
3B
100
AcDbScale
 70
     0
300
1:8
140
1.0
141
8.0
290
     0
  0
SCALE
  5
41
102
{ACAD_REACTORS
330
3B
102
}
330
3B
100
AcDbScale
 70
     0
300
1:10
140
1.0
141
10.0
290
     0
  0
SCALE
  5
42
102
{ACAD_REACTORS
330
3B
102
}
330
3B
100
AcDbScale
 70
     0
300
1:16
140
1.0
141
16.0
290
     0
  0
SCALE
  5
43
102
{ACAD_REACTORS
330
3B
102
}
330
3B
100
AcDbScale
 70
     0
300
1:20
140
1.0
141
20.0
290
     0
  0
SCALE
  5
44
102
{ACAD_REACTORS
330
3B
102
}
330
3B
100
AcDbScale
 70
     0
300
1:30
140
1.0
141
30.0
290
     0
  0
SCALE
  5
45
102
{ACAD_REACTORS
330
3B
102
}
330
3B
100
AcDbScale
 70
     0
300
1:40
140
1.0
141
40.0
290
     0
  0
SCALE
  5
46
102
{ACAD_REACTORS
330
3B
102
}
330
3B
100
AcDbScale
 70
     0
300
1:50
140
1.0
141
50.0
290
     0
  0
SCALE
  5
47
102
{ACAD_REACTORS
330
3B
102
}
330
3B
100
AcDbScale
 70
     0
300
1:100
140
1.0
141
100.0
290
     0
  0
SCALE
  5
48
102
{ACAD_REACTORS
330
3B
102
}
330
3B
100
AcDbScale
 70
     0
300
2:1
140
2.0
141
1.0
290
     0
  0
SCALE
  5
49
102
{ACAD_REACTORS
330
3B
102
}
330
3B
100
AcDbScale
 70
     0
300
4:1
140
4.0
141
1.0
290
     0
  0
SCALE
  5
4A
102
{ACAD_REACTORS
330
3B
102
}
330
3B
100
AcDbScale
 70
     0
300
8:1
140
8.0
141
1.0
290
     0
  0
SCALE
  5
4B
102
{ACAD_REACTORS
330
3B
102
}
330
3B
100
AcDbScale
 70
     0
300
10:1
140
10.0
141
1.0
290
     0
  0
SCALE
  5
4C
102
{ACAD_REACTORS
330
3B
102
}
330
3B
100
AcDbScale
 70
     0
300
100:1
140
100.0
141
1.0
290
     0
  0
SCALE
  5
4D
102
{ACAD_REACTORS
330
3B
102
}
330
3B
100
AcDbScale
 70
     0
300
1/128" = 1'-0"
140
0.0078125
141
12.0
290
     0
  0
SCALE
  5
4E
102
{ACAD_REACTORS
330
3B
102
}
330
3B
100
AcDbScale
 70
     0
300
1/64" = 1'-0"
140
0.015625
141
12.0
290
     0
  0
SCALE
  5
4F
102
{ACAD_REACTORS
330
3B
102
}
330
3B
100
AcDbScale
 70
     0
300
1/32" = 1'-0"
140
0.03125
141
12.0
290
     0
  0
SCALE
  5
50
102
{ACAD_REACTORS
330
3B
102
}
330
3B
100
AcDbScale
 70
     0
300
1/16" = 1'-0"
140
0.0625
141
12.0
290
     0
  0
SCALE
  5
51
102
{ACAD_REACTORS
330
3B
102
}
330
3B
100
AcDbScale
 70
     0
300
3/32" = 1'-0"
140
0.09375
141
12.0
290
     0
  0
SCALE
  5
52
102
{ACAD_REACTORS
330
3B
102
}
330
3B
100
AcDbScale
 70
     0
300
1/8" = 1'-0"
140
0.125
141
12.0
290
     0
  0
SCALE
  5
53
102
{ACAD_REACTORS
330
3B
102
}
330
3B
100
AcDbScale
 70
     0
300
3/16" = 1'-0"
140
0.1875
141
12.0
290
     0
  0
SCALE
  5
54
102
{ACAD_REACTORS
330
3B
102
}
330
3B
100
AcDbScale
 70
     0
300
1/4" = 1'-0"
140
0.25
141
12.0
290
     0
  0
SCALE
  5
55
102
{ACAD_REACTORS
330
3B
102
}
330
3B
100
AcDbScale
 70
     0
300
3/8" = 1'-0"
140
0.375
141
12.0
290
     0
  0
SCALE
  5
56
102
{ACAD_REACTORS
330
3B
102
}
330
3B
100
AcDbScale
 70
     0
300
1/2" = 1'-0"
140
0.5
141
12.0
290
     0
  0
SCALE
  5
57
102
{ACAD_REACTORS
330
3B
102
}
330
3B
100
AcDbScale
 70
     0
300
3/4" = 1'-0"
140
0.75
141
12.0
290
     0
  0
SCALE
  5
58
102
{ACAD_REACTORS
330
3B
102
}
330
3B
100
AcDbScale
 70
     0
300
1" = 1'-0"
140
1.0
141
12.0
290
     0
  0
SCALE
  5
59
102
{ACAD_REACTORS
330
3B
102
}
330
3B
100
AcDbScale
 70
     0
300
1-1/2" = 1'-0"
140
1.5
141
12.0
290
     0
  0
SCALE
  5
5A
102
{ACAD_REACTORS
330
3B
102
}
330
3B
100
AcDbScale
 70
     0
300
3" = 1'-0"
140
3.0
141
12.0
290
     0
  0
SCALE
  5
5B
102
{ACAD_REACTORS
330
3B
102
}
330
3B
100
AcDbScale
 70
     0
300
6" = 1'-0"
140
6.0
141
12.0
290
     0
  0
SCALE
  5
5C
102
{ACAD_REACTORS
330
3B
102
}
330
3B
100
AcDbScale
 70
     0
300
1'-0" = 1'-0"
140
12.0
141
12.0
290
     0
  0
VISUALSTYLE
  5
2F
102
{ACAD_REACTORS
330
2A
102
}
330
2A
100
AcDbVisualStyle
  2
2dWireframe
 70
     4
 71
     0
 72
     2
 73
     0
 90
        0
 40
-0.6
 41
-30.0
 62
     5
 63
     7
421
 16777215
 74
     1
 91
        4
 64
     7
 65
   257
 75
     1
175
     1
 42
1.0
 92
        0
 66
   257
 43
1.0
 76
     1
 77
     6
 78
     2
 67
     7
 79
     5
170
     0
171
     0
290
     0
174
     0
 93
        1
 44
0.0
173
     0
291
     0
 45
0.0
  0
VISUALSTYLE
  5
31
102
{ACAD_REACTORS
330
2A
102
}
330
2A
100
AcDbVisualStyle
  2
3D Hidden
 70
     6
 71
     1
 72
     2
 73
     2
 90
        0
 40
-0.6
 41
-30.0
 62
     5
 63
     7
421
 16777215
 74
     2
 91
        2
 64
     7
 65
   257
 75
     2
175
     1
 42
40.0
 92
        0
 66
   257
 43
1.0
 76
     1
 77
     6
 78
     2
 67
     7
 79
     3
170
     0
171
     0
290
     0
174
     0
 93
        1
 44
0.0
173
     0
291
     0
 45
0.0
  0
VISUALSTYLE
  5
30
102
{ACAD_REACTORS
330
2A
102
}
330
2A
100
AcDbVisualStyle
  2
3dWireframe
 70
     5
 71
     0
 72
     2
 73
     0
 90
        0
 40
-0.6
 41
-30.0
 62
     5
 63
     7
421
 16777215
 74
     1
 91
        4
 64
     7
 65
   257
 75
     1
175
     1
 42
1.0
 92
        0
 66
   257
 43
1.0
 76
     1
 77
     6
 78
     2
 67
     7
 79
     5
170
     0
171
     0
290
     0
174
     0
 93
        1
 44
0.0
173
     0
291
     0
 45
0.0
  0
VISUALSTYLE
  5
32
102
{ACAD_REACTORS
330
2A
102
}
330
2A
100
AcDbVisualStyle
  2
Basic
 70
     7
 71
     1
 72
     0
 73
     1
 90
        0
 40
-0.6
 41
-30.0
 62
     5
 63
     7
421
 16777215
 74
     0
 91
        4
 64
     7
 65
   257
 75
     1
175
     1
 42
1.0
 92
        8
 66
     7
 43
1.0
 76
     1
 77
     6
 78
     2
 67
     7
 79
     5
170
     0
171
     0
290
     0
174
     0
 93
        1
 44
0.0
173
     0
291
     1
 45
0.0
  0
VISUALSTYLE
  5
36
102
{ACAD_REACTORS
330
2A
102
}
330
2A
100
AcDbVisualStyle
  2
Brighten
 70
    12
 71
     2
 72
     2
 73
     0
 90
        0
 40
-0.6
 41
-30.0
 62
     5
 63
     7
421
 16777215
 74
     1
 91
        4
 64
     7
 65
   257
 75
     1
175
     1
 42
1.0
 92
        8
 66
     7
 43
1.0
 76
     1
 77
     6
 78
     2
 67
     7
 79
     5
170
     0
171
     0
290
     0
174
     0
 93
        1
 44
50.0
173
     0
291
     1
 45
0.0
  0
VISUALSTYLE
  5
3A
102
{ACAD_REACTORS
330
2A
102
}
330
2A
100
AcDbVisualStyle
  2
ColorChange
 70
    16
 71
     2
 72
     2
 73
     3
 90
        0
 40
-0.6
 41
-30.0
 62
     5
 63
     8
421
  8421504
 74
     1
 91
        4
 64
     7
 65
   257
 75
     1
175
     1
 42
1.0
 92
        8
 66
     8
424
  8421504
 43
1.0
 76
     1
 77
     6
 78
     2
 67
     7
 79
     5
170
     0
171
     0
290
     0
174
     0
 93
        1
 44
0.0
173
     0
291
     1
 45
0.0
  0
VISUALSTYLE
  5
34
102
{ACAD_REACTORS
330
2A
102
}
330
2A
100
AcDbVisualStyle
  2
Conceptual
 70
     9
 71
     3
 72
     2
 73
     0
 90
        0
 40
-0.6
 41
-30.0
 62
     5
 63
     7
421
 16777215
 74
     2
 91
        2
 64
     7
 65
   257
 75
     1
175
     1
 42
40.0
 92
        8
 66
     7
 43
1.0
 76
     1
 77
     6
 78
     2
 67
     7
 79
     3
170
     0
171
     0
290
     0
174
     0
 93
        1
 44
0.0
173
     0
291
     0
 45
0.0
  0
VISUALSTYLE
  5
35
102
{ACAD_REACTORS
330
2A
102
}
330
2A
100
AcDbVisualStyle
  2
Dim
 70
    11
 71
     2
 72
     2
 73
     0
 90
        0
 40
-0.6
 41
-30.0
 62
     5
 63
     7
421
 16777215
 74
     1
 91
        4
 64
     7
 65
   257
 75
     1
175
     1
 42
1.0
 92
        8
 66
     7
 43
1.0
 76
     1
 77
     6
 78
     2
 67
     7
 79
     5
170
     0
171
     0
290
     0
174
     0
 93
        1
 44
-50.0
173
     0
291
     1
 45
0.0
  0
VISUALSTYLE
  5
39
102
{ACAD_REACTORS
330
2A
102
}
330
2A
100
AcDbVisualStyle
  2
Facepattern
 70
    15
 71
     2
 72
     2
 73
     0
 90
        0
 40
-0.6
 41
-30.0
 62
     5
 63
     7
421
 16777215
 74
     1
 91
        4
 64
     7
 65
   257
 75
     1
175
     1
 42
1.0
 92
        8
 66
     7
 43
1.0
 76
     1
 77
     6
 78
     2
 67
     7
 79
     5
170
     0
171
     0
290
     0
174
     0
 93
        1
 44
0.0
173
     0
291
     1
 45
0.0
  0
VISUALSTYLE
  5
2B
102
{ACAD_REACTORS
330
2A
102
}
330
2A
100
AcDbVisualStyle
  2
Flat
 70
     0
 71
     2
 72
     1
 73
     1
 90
        2
 40
-0.6
 41
30.0
 62
     5
 63
     7
421
 16777215
 74
     0
 91
        4
 64
     7
 65
   257
 75
     1
175
     1
 42
1.0
 92
        8
 66
     7
 43
1.0
 76
     1
 77
     6
 78
     2
 67
     7
 79
     5
170
     0
171
     0
290
     0
174
     0
 93
       13
 44
0.0
173
     0
291
     1
 45
0.0
  0
VISUALSTYLE
  5
2C
102
{ACAD_REACTORS
330
2A
102
}
330
2A
100
AcDbVisualStyle
  2
FlatWithEdges
 70
     1
 71
     2
 72
     1
 73
     1
 90
        2
 40
-0.6
 41
30.0
 62
     5
 63
     7
421
 16777215
 74
     1
 91
        4
 64
     7
 65
   257
 75
     1
175
     1
 42
1.0
 92
        0
 66
   257
 43
1.0
 76
     1
 77
     6
 78
     2
 67
     7
 79
     5
170
     0
171
     0
290
     0
174
     0
 93
       13
 44
0.0
173
     0
291
     1
 45
0.0
  0
VISUALSTYLE
  5
2D
102
{ACAD_REACTORS
330
2A
102
}
330
2A
100
AcDbVisualStyle
  2
Gouraud
 70
     2
 71
     2
 72
     2
 73
     1
 90
        2
 40
-0.6
 41
30.0
 62
     5
 63
     7
421
 16777215
 74
     0
 91
        4
 64
     7
 65
   257
 75
     1
175
     1
 42
1.0
 92
        0
 66
     7
 43
1.0
 76
     1
 77
     6
 78
     2
 67
     7
 79
     5
170
     0
171
     0
290
     0
174
     0
 93
       13
 44
0.0
173
     0
291
     1
 45
0.0
  0
VISUALSTYLE
  5
2E
102
{ACAD_REACTORS
330
2A
102
}
330
2A
100
AcDbVisualStyle
  2
GouraudWithEdges
 70
     3
 71
     2
 72
     2
 73
     1
 90
        2
 40
-0.6
 41
30.0
 62
     5
 63
     7
421
 16777215
 74
     1
 91
        4
 64
     7
 65
   257
 75
     1
175
     1
 42
1.0
 92
        0
 66
   257
 43
1.0
 76
     1
 77
     6
 78
     2
 67
     7
 79
     5
170
     0
171
     0
290
     0
174
     0
 93
       13
 44
0.0
173
     0
291
     1
 45
0.0
  0
VISUALSTYLE
  5
38
102
{ACAD_REACTORS
330
2A
102
}
330
2A
100
AcDbVisualStyle
  2
Linepattern
 70
    14
 71
     2
 72
     2
 73
     0
 90
        0
 40
-0.6
 41
-30.0
 62
     5
 63
     7
421
 16777215
 74
     1
 91
        4
 64
     7
 65
   257
 75
     7
175
     7
 42
1.0
 92
        8
 66
     7
 43
1.0
 76
     1
 77
     6
 78
     2
 67
     7
 79
     5
170
     0
171
     0
290
     0
174
     0
 93
        1
 44
0.0
173
     0
291
     1
 45
0.0
  0
VISUALSTYLE
  5
33
102
{ACAD_REACTORS
330
2A
102
}
330
2A
100
AcDbVisualStyle
  2
Realistic
 70
     8
 71
     2
 72
     2
 73
     0
 90
        0
 40
-0.6
 41
-30.0
 62
     5
 63
     7
421
 16777215
 74
     1
 91
        0
 64
     7
 65
   257
 75
     1
175
     1
 42
1.0
 92
        8
 66
     8
424
  7895160
 43
1.0
 76
     1
 77
     6
 78
     2
 67
     7
 79
     5
170
     0
171
     0
290
     0
174
     0
 93
       13
 44
0.0
173
     0
291
     0
 45
0.0
  0
VISUALSTYLE
  5
37
102
{ACAD_REACTORS
330
2A
102
}
330
2A
100
AcDbVisualStyle
  2
Thicken
 70
    13
 71
     2
 72
     2
 73
     0
 90
        0
 40
-0.6
 41
-30.0
 62
     5
 63
     7
421
 16777215
 74
     1
 91
        4
 64
     7
 65
   257
 75
     1
175
     1
 42
1.0
 92
       12
 66
     7
 43
1.0
 76
     1
 77
     6
 78
     2
 67
     7
 79
     5
170
     0
171
     0
290
     0
174
     0
 93
        1
 44
0.0
173
     0
291
     1
 45
0.0
  0
ENDSEC
  0
EOF
